Oops, an error
Loading. Please wait.

Like Im Gonna Lose You tab

version 3
version 3

Whole song

Interactive

Video

7,108 views 96 this week
no commentswrite comment
1 2 3 4 5
x 5
add to favorites
×
Save as Personal and add changes to this tab that will be seen only by you. Learn more ›
×
You can save this tab as Personal to edit and correct it or add notes. All changes will be seen only by you. Learn more »
launch autoscroll
font size
0
reset
how to read this tab
guitar tuner
edit
Autoscroll
slow
fast
+/-
esc
set tempo
stop
Author
Difficulty
intermediate
Like I’m Gonna Lose You
Meghan Trainor ft. John Legend
Standard Tuning

Main chords:
  Cmaj     Em      Am     Fmaj
e|--0--| |--0--| |--0--| |--1--| 
B|--1--| |--0--| |--1--| |--1--| 
G|--0--| |--0--| |--2--| |--2--| 
D|--2--| |--2--| |--2--| |--2--| 
A|--3--| |--2--| |--0--| |--3--| 
E|--x--| |--x--| |--0--| |--x--| 
I recommend having a listen before having a go at this cover. 
Also note that this is a finger picking/strumming tab, when the full chord is written, 
please lightly strum down.


[Verse 1]
    Cmaj               Em             Am              Fmaj
e|--------------1-0--------3-----3----------0-----0--------------------------1--|
B|----------1-------1--------0-----0--------1-----1-------1-----1-----1---------|
G|------0---0-0-----0--------0-----0--------2-----2-----0-----0-----0------0----|
D|--0h2-----2-------2--0-1-2-2-2-2-2--------2-----2---3-----2-----0-------------|
A|--------3-3---3-3-3--------2-----2--3-2-0-0-0-0-0-----------------------------|
E|-----------------------------------------------------------------------3------|
I found myself dreaming in silver and gold
Like a scene from a movie that every broken heart knows

    Cmaj       Em             Am              Fmaj
e|--0---1-0--------3-----3----------0---5-3--------------------------1------|
B|----1-----1--------0-----0--------1-------------1-----1-----1-------------|
G|----0-----0--------0-----0--------2-----------0-----0-----0------0--------|
D|----2-----2--0-1-2-2-2-2-2--------2-2-2-----3-----2-----0-----------------|
A|--3-3-3-3-3--------2-----2--3-2-0-0---------------------------------------|
E|---------------------------------------------------------------3----------|
We were walking on moonlight and you pulled me close
Split second and you disappeared and then I was all alone


[Pre-Chorus 1]
    Cmaj       Em             Am                       Fmaj
e|--0---1-0--------3-----3--------0-5-0-------0-5-0--------------------------1--|
B|----1-----1--------0-----0----1-------1---1-------1------1-----1-----1--------|
G|----0-----0--------0-----0--2-----------2--------------0-----0-----0-----0----|
D|----2-----2--0-1-2-2-2-2-2---------------------------3-----2-----0------------|
A|--3-3-3-3-3--------2-----2----------------------------------------------------|
E|-----------------------------------------------------------------------3------|
I woke up in tears, with you by my side
A breath of relief, and I realized
No, we're not promised tomorrow


[Chorus 1]
    Cmaj       Em             Am              Fmaj
e|--0---1-0--------3-----3----------0-----0--------------------------1------|
B|----1-----1--------0-----0--------1-----1-------1-----1-----1-------------|
G|----0-----0--------0-----0--------2-----2-----0-----0-----0------0--------|
D|----2-----2--0-1-2-2-2-2-2--------2-----2---3-----2-----0-----------------|
A|--3-3-3-3-3--------2-----2--3-2-0-0-0-0-0---------------------------------|
E|---------------------------------------------------------------3----------|
So I'm gonna love you, like I'm gonna lose you
I'm gonna hold you, like I'm saying goodbye 

    Cmaj       Em             Am              Fmaj
e|--0---1-0--------3-----3----------0-----0--------------------------1------|
B|----1-----1--------0-----0--------1-----1-------1-----1-----1-------------|
G|----0-----0--------0-----0--------2-----2-----0-----0-----0------0--------|
D|----2-----2--0-1-2-2-2-2-2--------2-----2---3-----2-----0-----------------|
A|--3-3-3-3-3--------2-----2--3-2-0-0-0-0-0---------------------------------|
E|---------------------------------------------------------------3----------|
Wherever we're standing, I won't take you for granted
Cause we'll never know when, when we'll run out of time 

    Cmaj       Em             Am              Fmaj
e|--0---1-0--------3-----3----------0-----0--------------------------1------|
B|----1-----1--------0-----0--------1-----1-------1-----1-----1-------------|
G|----0-----0--------0-----0--------2-----2-----0-----0-----0------0--------|
D|----2-----2--0-1-2-2-2-2-2--------2-----2---3-----2-----0-----------------|
A|--3-3-3-3-3--------2-----2--3-2-0-0-0-0-0---------------------------------|
E|---------------------------------------------------------------3----------|
So I'm gonna love you, like I'm gonna lose you
I'm gonna love you, like I'm gonna lose you


[Verse 2]
In the blink of an eye, just a whisper of smoke
You could lose everything, the truth is you never know

So I'll kiss you longer baby, any chance that I get
I'll make the most of the minutes and love with no regrets


[Pre-Chorus 2]
Let's take our time, to say what we want
Use what we got, before it's all gone
Cause no, we're not promised tomorrow


[Chorus 2]
So I'm gonna love you, like I'm gonna lose you
I'm gonna hold you, like I'm saying goodbye

Wherever we're standing, I won't take you for granted
Cause we'll never know when, when we'll run out of time

So I'm gonna love you, like I'm gonna lose you
I'm gonna love you, like I'm gonna lose you


[Guitar solo]
e|------3-3-3------------------3-3-3--------------------5-5-5---5--|
B|------5-5-5------------------5-5-5--------------------5-5-5-8-5--|
G|------5-5-5-7-7h9-7/9\7\5\4--5-5-5-7-5h7-7p5-5\4------------5----|
D|--0/5---------------------------------------------0/7------------|
A|-----------------------------------------------------------------|
E|-----------------------------------------------------------------|
(Hey)

e|--------8--10/12-10-8--------------------------------------------|
B|------8----------------8h10-8------------------------------------|
G|--7/9------10/12-10-9--9-------9\7\5h7p5-------------------------|
D|-----------------------------------------------------------------|
A|-----------------------------------------------------------------|
E|-----------------------------------------------------------------|
(Hey)                           (woah)

    Cmaj       Em           Am                       Fmaj
e|--0----------0----------------0-5-0-------0-5-0--------------------------1--|
B|--1----------0--------------1-------1---1-------1------1-----1-----1--------|
G|--0----------0-----0------2-----------2--------------0-----0-----0-----0----|
D|--2---3-2----2---2---2-----------------------------3-----2-----0------------|
A|--3---3-3----2--------------------------------------------------------------|
E|---------------------------------------------------------------------3------|
So I'm gonna love you, like I'm gonna lose you
I'm gonna hold you, like I'm saying goodbye

    Cmaj       Em             Am              Fmaj
e|--0---1-0--------3-----3----------0-----0--------------------------1------|
B|----1-----1--------0-----0--------1-----1-------1-----1-----1-------------|
G|----0-----0--------0-----0--------2-----2-----0-----0-----0------0--------|
D|----2-----2--0-1-2-2-2-2-2--------2-----2---3-----2-----0-----------------|
A|--3-3-3-3-3--------2-----2--3-2-0-0-0-0-0---------------------------------|
E|---------------------------------------------------------------3----------|
Wherever we're standing, I won't take you for granted
Cause we'll never know when, when we'll run out of time

    Cmaj       Em             Am               Fmaj            C*
e|--0---1-0--------3-----3----------0-----0----1---1---1---1---8------------|
B|----1-----1--------0-----0--------1-----1----1---1---1---1---8------------|
G|----0-----0--------0-----0--------2-----2----2---2---2---2---9------------|
D|----2-----2--0-1-2-2-2-2-2--------2-----2----3---2---0---0---10-----------|
A|--3-3-3-3-3--------2-----2--3-2-0-0-0-0-0----3---3---3---3---10-----------|
E|-------------------------------------------------------------8------------|
So I'm gonna love you, like I'm gonna lose you
I'm gonna love you, like I'm gonna lose you



************************************

| x  Dead note
| h  Hammer-on
| p  Pull-off
| /  Slide up  
| \  Slide down

************************************

            
            
Suggest correction
Creating personal tab
Creating personal tab
You can edit any tab online and save it as your Personal.

You can edit, replace or remove any tab part or add personal notes – all changes will be seen only by you.

Personal tabs can be accessed anytime from any device, even offline.
Learn more »
comments
print report bad tab
guest
You may want to rate the tab now too:
select rating
Wanna post a correction for this tab? Suggest correction