Oops, an error
Loading. Please wait.

Lips Are Movin bass

version 3
version 3

Whole song

739 views 1 this week
2 commentsread comments
1 2 3 4 5
x 4
add to favorites
×
Save as Personal and add changes to this tab that will be seen only by you. Learn more ›
×
You can save this tab as Personal to edit and correct it or add notes. All changes will be seen only by you. Learn more »
launch autoscroll
font size
0
reset
guitar tuner
edit
Autoscroll
slow
fast
+/-
esc
set tempo
stop
Author
Difficulty
-------------------------------------------------------------------------------
                        Lips are Movin - Meghan Trainor
-------------------------------------------------------------------------------
Tabbed by: rlhoyt

Tuning: Standard

This song is pretty basic and starts on G. There are a few pauses in the song, so you'll just 
have to listen for those. Also, there is a baritone sax that does something different from the bass
that I couldnt quite get.

Intro:

G|---------------------------------------------------------------------------|
D|---------------------------------------------------------------------------|
A|---------------------------3----33-----------------------------------------|
E|---3----33-----5-----55---------------3------------------------------------|

The rest of the song:

G|---------------------------------------------------------------------------|
D|---------------------------------------------------------------------------|
A|------------------------------3----33--------------------------------------|
E|--0-1-2-3----33----5----55---------------3---------------------------------|



| /  slide up
| \  slide down
| h  hammer-on
| p  pull-off
| ~  vibrato
| +  harmonic
| x  Mute note
===============================================================================

            
            
Suggest correction
Creating personal tab
Creating personal tab
You can edit any tab online and save it as your Personal.

You can edit, replace or remove any tab part or add personal notes – all changes will be seen only by you.

Personal tabs can be accessed anytime from any device, even offline.
Learn more »
comments
print report bad tab
2 comments total.
0 reply
pickm3bass 10 Mar 18, 2016 03:29 PM

I have heard the song a lot.I guarantee that there is more to the song than that.

0 reply
rlhoyt 154 Apr 30, 2016 08:42 PM

That may be true, but it is overall a very simplistic song and any good musician will be able to use their skills to just improv or write a better tab. :)

guest
You may want to rate the tab now too:
select rating
Wanna post a correction for this tab? Suggest correction