Oops, an error
Loading. Please wait.

Cry Baby album bass

version 1
version 1

Album

Whole song

2,053 views 9 this week
1 commentread comment
1 2 3 4 5
1 last vote to show rating
add to favorites
×
Save as Personal and add changes to this tab that will be seen only by you. Learn more ›
×
You can save this tab as Personal to edit and correct it or add notes. All changes will be seen only by you. Learn more »
launch autoscroll
font size
0
reset
guitar tuner
edit
Autoscroll
slow
fast
+/-
esc
set tempo
stop
Author
Difficulty
-------------------------------------------------------------------------------
                             CRY BABY (ALBUM) – Melanie Martinez
-------------------------------------------------------------------------------
Tabbed by: cesare_moon
E-mail: 

Artist: Melanie Martinez
Album: Cry Baby
Year: 2015

Tuning: EADG

| /  slide up
| \  slide down
| h  hammer-on
| p  pull-off
| ~  vibrato
| +  harmonic
| x  Mute note

1.      Cry Baby
2.      Dollhouse (Chorus tabbed by Moose0nTheLoose)
3.      Sippy Cup
4.      Carousel
5.      Alphabet Boy
6.      Soap
7.      Training Wheels
8.      Pity Party
9.      Tag, You’re It
10.     Milk and Cookies
11.     Pacify Her
12.     Mrs. Potato Head
13.     Mad Hatter

1. CRY BABY

Verse – 00.15 – 00.35

G|---------------------------------------------------------------------------|
D|---------------------------------------------------------------------------|
A|-------2x-----2x---------2x----------2x------------------------------------|
E|-0x----------------0x----------5x------------------------------------------| x2

Pre-Chorus – 00.35 – 00.55

G|---------------------------------------------------------------------------|
D|-------------------------------3-------------------------------------------|
A|----------------3x---3~--—3x-2---2---------------2-(2-2-2-2-2-2-2)---------|
E|-0~---0x-5----5--------------------0-----0--3/5----------------------------| x2

Chorus – 00.55 – 01.16

G|---------------------------------------------------------------------------|
D|---------------------------------------------------------------------------|
A|-3------3---3-3--------------3---5---5-5-5-5-5-5--------4h5h4--------------|
E|-----------------0-----0-0-----0-----------------5---5--------5h4----------| x2

Verse – 01.26 – 01.46

G|---------------------------------------------------------------------------|
D|---------------------------------------------------------------------------|
A|-------2x-----2x---------2x----------2x------------------------------------|
E|-0x----------------0x----------5x------------------------------------------| x2

Pre-Chorus – 01.46 – 02.06

G|---------------------------------------------------------------------------|
D|-------------------------------3-------------------------------------------|
A|----------------3x---3~--—3x-2---2---------------2-(2-2-2-2-2-2-2)---------|
E|-0~---0x-5----5--------------------0-----0--3/5----------------------------| x2

Chorus – 02.06 – 02.26

G|---------------------------------------------------------------------------|
D|---------------------------------------------------------------------------|
A|-3------3---3-3--------------3---5---5-5-5-5-5-5--------4h5h4--------------|
E|-----------------0-----0-0-----0-----------------5---5--------5h4----------| x3

Rest for Bridge and first two bars of Chorus

Chorus – 03.17 – End.

G|---------------------------------------------------------------------------|
D|---------------------------------------------------------------------------|
A|-3------3---3-3--------------3---5---5-5-5-5-5-5--------4h5h4--------------|
E|-----------------0-----0-0-----0-----------------5---5--------5h4----------| x2


2. DOLLHOUSE (Chorus tabbed by Moose0nTheLoose)

Verse – 00.15 – 00.44

G|---------------------------------------------------------------------------|
D|---------------------------------------------------------------------------|
A|---------------------------------------------------------------------------|
E|-5/1----------------------------5/1----------------------------------------|

G|---------------------------------------------------------------------------|
D|---------------------------------------------------------------------------|
A|------3---3---------------------------3---3--------------------------------|
E|-5------------1----3------------5-------------1----3-----------------------|

Chorus – 00.44 – 01.14

G|---------------------------------------------------------------------------|
D|---------------------------------------------------------------------------|
A|---------------------------------5-3-3/5-----------------------------------|
E|-1x-1x---1-1-1-3----5x-5x-5-5-5----------6-6---1x-1x-1-1-1-----------------| x2

Rest for the Verse

Chorus – 01.58 – 02.28

G|---------------------------------------------------------------------------|
D|---------------------------------------------------------------------------|
A|---------------------------------5-3-3/5-----------------------------------|
E|-1x-1x---1-1-1-3----5x-5x-5-5-5----------6-6---1x-1x-1-1-1-----------------| x2

Rest for the Bridge

Chorus – 03.04 – 03.34

G|---------------------------------------------------------------------------|
D|---------------------------------------------------------------------------|
A|---------------------------------5-3-3/5-----------------------------------|
E|-1x-1x---1-1-1-3----5x-5x-5-5-5----------6-6---1x-1x-1-1-1-----------------| x2


3. SIPPY CUP

Chorus – 01.04 – 01.32

G|---------------------------------------------------------------------------|
D|---------------------------------------------------------------------------|
A|-------------2/3~-------------------2~-------------------------------------|
E|-0~-----------------------3~-----------------------------------------------| x2

Post-Chorus – 01.32 – 01.46

G|---------------------------------------------------------------------------|
D|-----------------------------------------------------------5h4-------------|
A|-----------------2x--5x—5x-5x—5/3x--3-3--3---------------3-----5-----------|
E|-0-—0x—0x--0-0x----------------------------3-3-3-1-1---3x--------3x-3x-3x--| 

Verse – 01.46 – 02.15

G|----------------------------------------------------------------5-----------|
D|------------------------------------5h4---------------------5h4-------------|
A|------------------2--3--3—3x------3-----5-----------------------------------|
E|-0--0—0x----0-2-3---------------3---------3--3—3x------3--3-------3--3—3x---| 

G|----------------------------------------------------------------------------|
D|------------------------------------5h4---------------------5h4-------------|
A|------------------2--3--3—3x------3-----5-----------------------5-----------|
E|-0--0—0x----0-2-3---------------3---------3--3—3x------3--3-------3--3—3x---| 

Chorus – 02.15 – 02.43

G|---------------------------------------------------------------------------|
D|---------------------------------------------------------------------------|
A|-------------2/3~-------------------2~-------------------------------------|
E|-0~-----------------------3~-----------------------------------------------| x2

Post-Chorus/Outro – 02.43 – 02.58

G|---------------------------------------------------------------------------|
D|---------------------------------------------------------------------------|
A|-----------2---3---------2-------------------------------------------------|
E|-0---------------------------3------3-----3-----3--------------------------| x2

4. CAROUSEL

Instrumental – 00.37 – 00.50

G|---------------------------------------------------------------------------|
D|---------------------------------------------------------------------------|
A|------------3--3--3--2------------3--3--3--5-------------------------------|
E|-0--0--0--0------------0--0--0--0------------------------------------------| x2

Verse – 00.50 – 01.15

G|---------------------------------------------------------------------------|
D|---------------------------------------------------------------------------|
A|------------3--3--3--2------------3--3--2--2-------------------------------|
E|-0--0--0--0------------0--0--0--0------------------------------------------| x2

G|---------------------------------------------------------------------------|
D|---------------------------------------------------------------------------|
A|------------3--3-----3------------3---3------------------------------------|
E|-0---------------------3--3-----3------------------------------------------| 

G|---------------------------------------------------------------------------|
D|----------------------3----------------------------------------------------|
A|-3-----------3--3-3-2---2-----------3--3----3------------------------------|
E|----0--0--0---------------3--3--3--3------0---0----------------------------|

Pre-chorus – 01.15 – 01.27

G|---------------------------------------------------------------------------|
D|---------------------------------------------------------------------------|
A|------------3--3--3--2------------3--3--2--2-------------------------------|
E|-0--0--0--0------------0--0--0--0------------------------------------------|

G|---------------------------------------------------------------------------|
D|---------------------------------------------------------------------------|
A|------------3--3--3--2------------3--3--2--2-------------------------------|
E|-0--0--0--0------------0--0--0--0------------------------------------------|

Chorus (Rest for first two bars) – 01.40 – 01.52

G|---------------------------------------------------------------------------|
D|---------------------------------------------------------------------------|
A|------------3--3--3--2------------3--3--2--2-------------------------------|
E|-0--0--0--0------------0--0--0--0------------------------------------------| 

Verse – 01.52 – 02.17

G|---------------------------------------------------------------------------|
D|---------------------------------------------------------------------------|
A|------------3--3--3--2------------3--3--2--2-------------------------------|
E|-0--0--0--0------------0--0--0--0------------------------------------------| x2

G|---------------------------------------------------------------------------|
D|---------------------------------------------------------------------------|
A|------------3--3-----3------------3---3------------------------------------|
E|-0---------------------3--3-----3------------------------------------------| 

G|---------------------------------------------------------------------------|
D|----------------------3----------------------------------------------------|
A|-3-----------3--3-3-2---2-----------3--3----3------------------------------|
E|----0--0--0---------------3--3--3--3------0---0----------------------------|

Pre-chorus – 02.17 – 02.29

G|---------------------------------------------------------------------------|
D|---------------------------------------------------------------------------|
A|------------3--3--3--2------------3--3--2--2-------------------------------|
E|-0--0--0--0------------0--0--0--0------------------------------------------|

G|---------------------------------------------------------------------------|
D|---------------------------------------------------------------------------|
A|------------3--3--3--2------------3--3--2--2-------------------------------|
E|-0--0--0--0------------0--0--0--0------------------------------------------| 

Chorus (Rest for first two bars) – 02.42 – 02.54

G|---------------------------------------------------------------------------|
D|---------------------------------------------------------------------------|
A|------------3--3--3--2------------3--3--2--2-------------------------------|
E|-0--0--0--0------------0--0--0--0------------------------------------------| 

Rest for Bridge

Chorus – 03.19 – 03.44

G|---------------------------------------------------------------------------|
D|---------------------------------------------------------------------------|
A|------------3--3--3--2------------3--3--2--2-------------------------------|
E|-0--0--0--0------------0--0--0--0------------------------------------------| x4


5. ALPHABET BOY

Verse – 00.13 – 00.38

G|---------------------------------------------------------------------------|
D|---------------------------------------------------------------------------|
A|------------3---3--3-3-----------------------------------------------------|
E|-5---5--5-5------------0---0--0-0-5---5--5-5-------------------------------| 


G|---------------------------------------------------------------------------|
D|---------------------------------------------------------------------------|
A|------------3---3--3-3-----------------------------4h5---------------------|
E|-5---5--5-5------------0---0--0-0-5---5--5-5------5------------------------| 

Pre-Chorus – 00.38 – 00.50 

G|---------------------------------------------------------------------------|
D|---------------------------------------2-----------------------------------|
A|----------------5-7-5-3x---3x---3x-3-5----------------5-7-3—3x---3x---3x---|
E|-5x---5x---5x-5--------------------------0x---0x---0x----------------------| 

Chorus – 01.03 – 01.27

G|---------------------------------------------------------------------------|
D|---------------------------------------------------------------------------|
A|-----------------5~-----5-5-5----3~-----3-3-3------------------------------|
E|-0~-----0-0-0-------------------------------------3~-----------------------| x3

G|---------------------------------------------------------------------------|
D|---------------------------------------------------------------------------|
A|-----------------5~-----5-5-5----------------------------------------------|
E|-0~-----0-0-0--------------------5~----------------------------------------|

Verse – 01.40 – 02.04

G|---------------------------------------------------------------------------|
D|---------------------------------------------------------------------------|
A|------------3---3--3-3-----------------------------------------------------|
E|-5---5--5-5------------0---0--0-0-5---5--5-5-------------------------------| 


G|---------------------------------------------------------------------------|
D|---------------------------------------------------------------------------|
A|------------3---3--3-3-----------------------------4h5---------------------|
E|-5---5--5-5------------0---0--0-0-5---5--5-5------5------------------------| 

Pre-Chorus – 02.04 – 02.17

G|---------------------------------------------------------------------------|
D|---------------------------------------2-----------------------------------|
A|----------------5-7-5-3x---3x---3x-3-5----------------5-7-3—3x---3x---3x---|
E|-5x---5x---5x-5--------------------------0x---0x---0x----------------------| 

Chorus – 02.29 – 02.54

G|---------------------------------------------------------------------------|
D|---------------------------------------------------------------------------|
A|-----------------5~-----5-5-5----3~-----3-3-3------------------------------|
E|-0~-----0-0-0-------------------------------------3~-----------------------| x3

G|---------------------------------------------------------------------------|
D|---------------------------------------------------------------------------|
A|-----------------5~-----5-5-5----------------------------------------------|
E|-0~-----0-0-0--------------------5~----------------------------------------|

Rest for Bridge and Chorus 

Outro – 03.44 – 04.08

G|---------------------------------------------------------------------------|
D|---------------------------------------------------------------------------|
A|-----------------5~-----5-5-5----3~-----3-3-3------------------------------|
E|-0~-----0-0-0-------------------------------------3~-----------------------| x3

G|---------------------------------------------------------------------------|
D|---------------------------------------------------------------------------|
A|-----------------5~-----5-5-5----------------------------------------------|
E|-0~-----0-0-0--------------------5~----------------------------------------|

6. SOAP

Pre-chorus – 00.34 – 00.57

G|---------------------------------------------------------------------------|
D|---------------------------------------------------------------------------|
A|-5~------------------2~----------------------------------------------------|
E|-------------------------------------------2~------------------------------| x4

Chorus – 00.57 – 01.20

G|---------------------------------------------------------------------------|
D|---------------------------------------------------------------------------|
A|-3~------------------------------------------------------------------------|
E|---------------------5~--------------------0~------------------3~----------| x3

G|---------------------------------------------------------------------------|
D|---------------------------------------------------------------------------|
A|-3---3---3---3-------------------------------------------------------------|
E|---------------------5---5---5---5---------0--0--0--0---3------------------|

Instrumental – 01.20 – 01.31

G|---------------------------------------------------------------------------|
D|---------------------------------------------------------------------------|
A|-3~-----3-----3------------------------------------------------------------|
E|------------------5~-----5-----5----0~----0-----0-----3~----3----3---------| x2

Verse (Rest for first bar) – 01.37 – 01.54

G|---------------------------------------------------------------------------|
D|---------------------------------------------------------------------------|
A|-5--5--5--5--2--2--2--2----------------------------------------------------|
E|-------------------------2--2--2--2--2--2--2--2----------------------------| x3

Pre-Chorus – 01.54 – 02.17

G|---------------------------------------------------------------------------|
D|---------------------------------------------------------------------------|
A|-5--5--5--5--2--2--2--2----------------------------------------------------|
E|-------------------------2--2--2--2--2--2--2--2----------------------------| x4

Chorus – 02.17 – 02.40

G|---------------------------------------------------------------------------|
D|---------------------------------------------------------------------------|
A|-3~------------------------------------------------------------------------|
E|---------------------5~--------------------0~------------------3~----------| x3

G|---------------------------------------------------------------------------|
D|---------------------------------------------------------------------------|
A|-3---3---3---3-------------------------------------------------------------|
E|---------------------5---5---5---5---------0--0--0--0---3------------------|

Instrumental – 02.40 – 03.03

G|---------------------------------------------------------------------------|
D|---------------------------------------------------------------------------|
A|-3~-----3-----3------------------------------------------------------------|
E|------------------5~-----5-----5----0~----0-----0-----3~----3----3---------| x2

Chorus 03.03 – 03.25

G|---------------------------------------------------------------------------|
D|---------------------------------------------------------------------------|
A|-3~-----3-----3------------------------------------------------------------|
E|--------------------5~-----5-----5----0~----0-----0-----3~----3----3-------| x2

G|---------------------------------------------------------------------------|
D|----6-----5------3---------------------------------------------------------|
A|-----------------------5---------------------------------------------------|
E|-0------0-----0-----0------5-----5----0-----0-----0-----3-----3----3-------|


G|---------------------------------------------------------------------------|
D|---------------------------------------------------------------------------|
A|-3~-----3-----3------------------------------------------------------3~----|
E|------------------5~-----5-----5----0~----0-----0-----3~----3----3---------|  


7. TRAINING WHEELS

End of Verse – 00.42 – 00.44

G|---------------------------------------------------------------------------|
D|---------------------------------------------------------------------------|
A|---------------------------------------------------------------------------|
E|-5~------------------------------------------------------------------------|

Chorus – 0.44 – 01.18

G|---------------------------------------------------------------------------|
D|---------------------------------------------------------------------------|
A|---------------4-------4---------------------------------------------------|
E|-5------5---------------------7--------7-------0--------0------------------| x2

Rest for Verse

End of Verse – 01.53 – 01.55

G|---------------------------------------------------------------------------|
D|---------------------------------------------------------------------------|
A|---------------------------------------------------------------------------|
E|-5~------------------------------------------------------------------------|

Chorus – 1.55 – 02.29 

G|---------------------------------------------------------------------------|
D|---------------------------------------------------------------------------|
A|---------------4-------4---------------------------------------------------|
E|-5------5---------------------7--------7-------0--------0------------------| x2

Rest for Bridge

End of Bridge – 02.44 – 02.46

G|---------------------------------------------------------------------------|
D|---------------------------------------------------------------------------|
A|---4------------------------------------------------------------------------|
E|-------5~-------------------------------------------------------------------|

Chorus – 02.46 – 03.20

G|---------------------------------------------------------------------------|
D|---------------------------------------------------------------------------|
A|---------------4-------4---------------------------------------------------|
E|-5------5---------------------7--------7-------0--------0------------------| x2

8. PITY PARTY

Pre-Chorus – 00.31 – 00.45

G|---------------------------------------------------------------------------|
D|---------------------------------------------------------------------------|
A|------------3/4--3-------------------3/4--3--------------------------------|
E|-1x----1/4---------4—4--3/1x----1/4---------4x-----------------------------|

Chorus – 00.45 – 01.13

G|---------------------------------------------------------------------------|
D|---------------------------------------------------------------------------|
A|-3h2---------------------------4-4-4-4-4-4-4-4-4-4-4-4-4h3-----------------|
E|-----1-1-1-1-1-1-1-4-4-4-4-4-3----------------------------4h3--------------| 

G|---------------------------------------------------------------------------|
D|---------------------------------------------------------------------------|
A|-----------------------------4-4-4-4-4-4-4-4-4-4-4-4-4-4-4-4-4-------------|
E|-1-1-1-1-1-1-1-1-4-4-4-4-4-3-----------------------------------------------|

G|---------------------------------------------------------------------------|
D|---------------------------------------------------------------------------|
A|-3h2---------------------------4-4-4-4-4-4-4-4-4-4-4-4-4h3-----------------|
E|-----1-1-1-1-1-1-1-4-4-4-4-4-3----------------------------4h3--------------| 

G|---------------------------------------------------------------------------|
D|---------------------------------------------------------------------------|
A|-----------------------------4-4-4-4-4-4-4-4-4-4-4-4-4h3-------------------|
E|-1-1-1-1-1-1-1-1-4-4-4-4-4-3----------------------------4h3----------------|

Verse – 01.13 – 01.27

G|---------------------------------------------------------------------------|
D|---------------------------------------------------------------------------|
A|-4----4----4--4----------------4----4----4---------------------------------|
E|----------------1----1----1--1----------------1----1----1--1---------------|

Pre-Chorus – 01.27 – 01.41

G|---------------------------------------------------------------------------|
D|---------------------------------------------------------------------------|
A|-4----4----4--4----------------4----4----4--4------------------------------|
E|----------------------------------------------1----------------------------|

Chorus – 01.41 – 02.09

G|---------------------------------------------------------------------------|
D|---------------------------------------------------------------------------|
A|-3h2---------------------------4-4-4-4-4-4-4-4-4-4-4-4-4h3-----------------|
E|-----1-1-1-1-1-1-1-4-4-4-4-4-3----------------------------4h3--------------| 

G|---------------------------------------------------------------------------|
D|---------------------------------------------------------------------------|
A|-----------------------------4-4-4-4-4-4-4-4-4-4-4-4-4-4-4-4-4-------------|
E|-1-1-1-1-1-1-1-1-4-4-4-4-4-3-----------------------------------------------|

G|---------------------------------------------------------------------------|
D|---------------------------------------------------------------------------|
A|-3h2---------------------------4-4-4-4-4-4-4-4-4-4-4-4-4h3-----------------|
E|-----1-1-1-1-1-1-1-4-4-4-4-4-3----------------------------4h3--------------| 

G|---------------------------------------------------------------------------|
D|---------------------------------------------------------------------------|
A|-----------------------------4-4-4-4-4-4-4-4-4-4-4-4-4h3-------------------|
E|-1-1-1-1-1-1-1-1-4-4-4-4-4-3----------------------------4h3----------------|

Rest for Bridge

Chorus – 02.37 – 03.18

G|---------------------------------------------------------------------------|
D|---------------------------------------------------------------------------|
A|-3h2---------------------------4-4-4-4-4-4-4-4-4-4-4-4-4h3-----------------|
E|-----1-1-1-1-1-1-1-4-4-4-4-4-3----------------------------4h3--------------| 

G|---------------------------------------------------------------------------|
D|---------------------------------------------------------------------------|
A|-----------------------------4-4-4-4-4-4-4-4-4-4-4-4-4-4-4-4-4-------------|
E|-1-1-1-1-1-1-1-1-4-4-4-4-4-3-----------------------------------------------|

G|---------------------------------------------------------------------------|
D|---------------------------------------------------------------------------|
A|-3h2---------------------------4-4-4-4-4-4-4-4-4-4-4-4-4h3-----------------|
E|-----1-1-1-1-1-1-1-4-4-4-4-4-3----------------------------4h3--------------| 

G|---------------------------------------------------------------------------|
D|---------------------------------------------------------------------------|
A|-----------------------------4-4-4-4-4-4-4-4-4-4-4-4-4h3-------------------|
E|-1-1-1-1-1-1-1-1-4-4-4-4-4-3----------------------------4h3----------------|

G|---------------------------------------------------------------------------|
D|---------------------------------------------------------------------------|
A|-3h2---------------------------4-4-4-4-4-4-4-4-4-4-4-4-4h3-----------------|
E|-----1-1-1-1-1-1-1-4-4-4-4-4-3----------------------------4h3--------------| 

G|---------------------------------------------------------------------------|
D|---------------------------------------------------------------------------|
A|-----------------------------4-4-4-4-4-4-4-4-4-4-4-4-4-4-4-4-4-------------|
E|-1-1-1-1-1-1-1-1-4-4-4-4-4-3-----------------------------------------------|

G|---------------------------------------------------------------------------|
D|---------------------------------------------------------------------------|
A|-3h2---------------------------4-4-4-4-4-4-4-4-4-4-4-4-4h3-----------------|
E|-----1-1-1-1-1-1-1-4-4-4-4-4-3----------------------------4h3--------------| 

G|---------------------------------------------------------------------------|
D|---------------------------------------------------------------------------|
A|-----------------------------4-4-4-4-4-4-4-4-4-4-4-4-4---------------------|
E|-1-1-1-1-1-1-1-1-4-4-4-4-4-3----------------------------1~-----------------|

9. TAG, YOU’RE IT

Chorus – 00.43 – 01.17 

G|---------------------------------------------------------------------------|
D|---------------------------------------------------------------------------|
A|---------------5--5---5--5---------------2---2----2-2----------------------|
E|-1x-----1x—1x--------------0x------0x—0x-----------------------------------|

Rest for Verse

Chorus – 01.33 – 02.07

G|---------------------------------------------------------------------------|
D|---------------------------------------------------------------------------|
A|---------------5--5---5--5---------------2---2----2-2----------------------|
E|-1x-----1x—1x--------------0x------0x—0x-----------------------------------|

Rest for Bridge and first two bars of Chorus 

Chorus – 02.41 – 02.57

G|---------------------------------------------------------------------------|
D|---------------------------------------------------------------------------|
A|---------------5--5---5--5---------------2---2----2-2----------------------|
E|-1x-----1x—1x--------------0x------0x—0x-----------------------------------|

10. MILK AND COOKIES

Post-Chorus – 01.14 – 01.25

G|---------------------------------------------------------------------------|
D|---------------------------------------------------------------------------|
A|---------------------------------------------------------------------------|
E|-10-10-10-10-1-1-1-1-3-3-3-3-3-3-3-3-10-10-10-10-1-1-1-1-3-3-3-3-3-3-3-3---|

Rest for Verse

Chorus – 01.46 – 02.08

G|---------------------------------------------------------------------------|
D|---------------------------------------------------------------------------|
A|---------------------------------------------------------------------------|
E|-10~--------1x----1x---3--3--3-3-3--4-3------------------------------------| x4

Post-Chorus – 02.08 – 02.18

G|---------------------------------------------------------------------------|
D|---------------------------------------------------------------------------|
A|---------------------------------------------------------------------------|
E|-10-10-10-10-1-1-1-1-3-3-3-3-3-3-3-3-10-10-10-10-1-1-1-1-3-3-3-3-3-3-3-3---|

Rest for Bridge

Chorus – 02.40 – 03.01

G|---------------------------------------------------------------------------|
D|---------------------------------------------------------------------------|
A|---------------------------------------------------------------------------|
E|-10~--------1x----1x---3--3--3-3-3--4-3------------------------------------| x4

Post-Chorus – 03.01 – 03.12

G|---------------------------------------------------------------------------|
D|---------------------------------------------------------------------------|
A|---------------------------------------------------------------------------|
E|-10-10-10-10-1-1-1-1-3-3-3-3-3-3-3-3-10-10-10-10-1-1-1-1-3-3-3-3-3-3-3-3---|

11. PACIFY HER

Pre-chorus – 00.42 – 00.54

G|---------------------------------------------------------------------------|
D|---------------------------------------------------------------------------|
A|-5-5-5-5-------------------------------------------------------------------|
E|-----------------5-5-5-5--------1------------------------------------------|

Chorus – 00.54 – 01.29

G|---------------------------------------------------------------------------|
D|---------5h4---------------------------------------------------------------|
A|-----------------5-5-5-5-5-7-7-7-------------------------4-4-3-3-----------|
E|-1-1-1-1-----1-1-----------------5-5-5-5-5-5-5-5-5-5-5-5-------------------| x2

G|---------------------------------------------------------------------------|
D|---------------------------------------------------------------------------|
A|-----------------5-5-5-5-5-5-5-5-------------------------------------------|
E|-1-1-1-1-1-1-1-1-----------------5-5-5-5-5-5-5-5-5-5-5-5-5-5-5-5x----------|

Rest for Verse 

Chorus – 02.07 – 02.42

G|---------------------------------------------------------------------------|
D|---------5h4---------------------------------------------------------------|
A|-----------------5-5-5-5-5-7-7-7-------------------------4-4-3-3-----------|
E|-1-1-1-1-----1-1-----------------5-5-5-5-5-5-5-5-5-5-5-5-------------------| x2

G|---------------------------------------------------------------------------|
D|---------------------------------------------------------------------------|
A|-----------------5-5-5-5-5-5-5-5-------------------------------------------|
E|-1-1-1-1-1-1-1-1-----------------5-5-5-5-5-5-5-5-5-5-5-5-5-5-5-5x----------|

Bridge – 02.42 – 02.59

G|---------------------------------------------------------------------------|
D|---------------------------------------------------------------------------|
A|-----------------5~--------------------------------------------------------|
E|-1~------------------------------5~-------------5~-------------------------| 

Chorus – 02.59 - 03.36

G|---------------------------------------------------------------------------|
D|---------5h4---------------------------------------------------------------|
A|-----------------5-5-5-5-5-7-7-7-------------------------4-4-3-3-----------|
E|-1-1-1-1-----1-1-----------------5-5-5-5-5-5-5-5-5-5-5-5-------------------| x2

G|---------------------------------------------------------------------------|
D|---------------------------------------------------------------------------|
A|-----------------5-5-5-5-5-5-5-5-------------------------------------------|
E|-1-1-1-1-1-1-1-1-----------------5-5-5-5-5-5-5-5-5-5-5-5-5-5-5-5x----------|

12. MRS POTATO HEAD

Chorus – 00.45 – 01.08

G|---------------------------------------------------------------------------|
D|---------------------------------------------------------------------------|
A|---------------------------------3-3-3-3-3-3-3-3---------------------------|
E|-5-5-5-5-5-5-5-5-5-5-5-5-5-5-5-5-----------------3-3-3-3-3-3-3-3-----------|

G|---------------------------------------------------------------------------|
D|---------------------------------------------------------------------------|
A|---------------------------------3-3-3-3-3-3-3-3---------------------------|
E|-0-0-0-0-0-0-0-0-5-5-5-5-5-5-5-5-----------------3-3-3-3-3-3-3-3-----------|

Rest for Verse

Chorus – 01.52 – 02.26

G|---------------------------------------------------------------------------|
D|---------------------------------------------------------------------------|
A|---------------------------------3-3-3-3-3-3-3-3---------------------------|
E|-5-5-5-5-5-5-5-5-5-5-5-5-5-5-5-5-----------------3-3-3-3-3-3-3-3-----------|

G|---------------------------------------------------------------------------|
D|---------------------------------------------------------------------------|
A|---------------------------------3-3-3-3-3-3-3-3---------------------------|
E|-0-0-0-0-0-0-0-0-5-5-5-5-5-5-5-5-----------------3-3-3-3-3-3-3-3-----------| x2

Rest for Bridge

Chorus/Outro – 03.01 – 03.23

G|---------------------------------------------------------------------------|
D|---------------------------------------------------------------------------|
A|---------------------------------3-3-3-3-3-3-3-3---------------------------|
E|-5-5-5-5-5-5-5-5-5-5-5-5-5-5-5-5-----------------3-3-3-3-3-3-3-3-----------|

G|---------------------------------------------------------------------------|
D|---------------------------------------------------------------------------|
A|---------------------------------3-3-3-3-3-3-3-3---------------------------|
E|-0-0-0-0-0-0-0-0-5-5-5-5-5-5-5-5-----------------3-3-3-3-3-3-3-3-----------| x3

13. MAD HATTER

Verse – 00.10 – 00.52

G|---------------------------------------------------------------------------|
D|---------------------------------------------------------------------------|
A|-----------------0------0-0-0x---3------3-3-3x---2-----2-2-2x--------------|
E|-0-----0-0-0x--------------------------------------------------------------| x8

Chorus – 00.52 – 01.13

G|---------------------------------------------------------------------------|
D|---------------------------------------------------------------------------|
A|-----------------3-3-3-3-2-2-2-2-----------------3-3-3-3-2-2-2-2-----------|
E|-0-0-0-0-5-5-5-5-----------------0-0-0-0-5-5-5-5---------------------------| x2

Verse – 01.23 – 01.54 

G|---------------------------------------------------------------------------|
D|---------------------------------------------------------------------------|
A|-----------------0------0-0-0x---3------3-3-3x---2-----2-2-2x--------------|
E|-0-----0-0-0x--------------------------------------------------------------| x8

Chorus – 01.54 – 02.15

G|---------------------------------------------------------------------------|
D|---------------------------------------------------------------------------|
A|-----------------3-3-3-3-2-2-2-2-----------------3-3-3-3-2-2-2-2-----------|
E|-0-0-0-0-5-5-5-5-----------------0-0-0-0-5-5-5-5---------------------------| x2


G|---------------------------------------------------------------------------|
D|---------------------------------------------------------------------------|
A|-----------------3-3-3-3-2-2-2-2-----------------3-3-3-3-2-2-1-------------|
E|-0-0-0-0-0-5-4-3-----------------0-0-0-0-5-5-5-5---------------2-----------| x2

Rest for Bridge

Chorus/Outro – 02.57 – End.

G|---------------------------------------------------------------------------|
D|---------------------------------------------------------------------------|
A|-----------------3-3-3-3-2-2-2-2-----------------3-3-3-3-2-2-2-2-----------|
E|-0-0-0-0-5-5-5-5-----------------0-0-0-0-5-5-5-5---------------------------| x2

Thank you! 

| /  slide up
| \  slide down
| h  hammer-on
| p  pull-off
| ~  vibrato
| +  harmonic
| x  Mute note
===============================================================================

            
            
Suggest correction
Creating personal tab
Creating personal tab
You can edit any tab online and save it as your Personal.

You can edit, replace or remove any tab part or add personal notes – all changes will be seen only by you.

Personal tabs can be accessed anytime from any device, even offline.
Learn more »
Give kudos to tab author, rate the tab!
1 2 3 4 5
comments
print report bad tab
1 comment total.
0 reply
XavierBass67 10 Feb 07, 2017 09:25 PM

Great, but, how can I get the bass tone from Dollhouse? Or at least something close.

guest
You may want to rate the tab now too:
select rating
Wanna post a correction for this tab? Suggest correction