Oops, an error
Loading. Please wait.

Dead To Me intro tab

1,990 views 6 this week
no commentswrite comment
1 2 3 4 5
x 8
add to favorites
×
Save as Personal and add changes to this tab that will be seen only by you. Learn more ›
×
You can save this tab as Personal to edit and correct it or add notes. All changes will be seen only by you. Learn more »
launch autoscroll
font size
0
reset
how to read this tab
guitar tuner
edit
Autoscroll
slow
fast
+/-
esc
set tempo
stop
DEAD TO ME - Melanie Martinez

Hope this is alright, but if you find something wrong I´ll correct it!

I think that it´s better to be able to move the capo around to fit your voice, 
so this tab is relative to the capo. 

Capo 5 

   Am            Em           
e|-------------------------------------------------------------------------------|
B|---------1---------------------------------------------------------------------|
G|-------------------------------------------------------------------------------|
D|---------------------------------------------2---------------------------------|
A|---0-----------------------------------------2---------------------------------|
E|-----------------------0---0---0-----------------------------------------------|
  My condolences    I´ll shed a tear with your family

     C                            Am
e|--------------------------------------------------------------------------------|
B|--------------------------------------------------------------------------------|
G|-----------------------0--------------------2-----------------------------------|
D|-----------2-2------2-----2-----------------2-----------------------------------|
A|-------3--------3------------3-------0------------------------------------------|
E|--0-----------------------------------------------------------------------------|
       I´ll open a bottle up, pour a little bit out in your memory

          Am                               Em           
e|--------------------------------------------------------------------------------|
B|--------------------------------------------------------------------------------|
G|-------------------2------------------------------------------------------------|
D|-------------------2----------------------------------------------------2-------|
A|------------0-----------------------------------------------------------2-------|
E|---------------------------------------------0---0---0--------------------------|
I´ll be at the wake dressed in all black I´ll call out your name but you wont call back

    Am/E                               Am
e|--------------------------------------------------------------------------------|
B|-----------------------------------------------1--------------------------------|
G|---------------2-------------------------------------2--------------------------|
D|---------------2----------------------------------2--2--------------------------|
A|-----------(0)-------------------------------0-----------------------------0----|
E|-----0--------------------------------------------------------------------------|
I´ll hand a flower to your mother when I say goodbye     ´Cause baby you´re dead to me


            
            
Suggest correction
Creating personal tab
Creating personal tab
You can edit any tab online and save it as your Personal.

You can edit, replace or remove any tab part or add personal notes – all changes will be seen only by you.

Personal tabs can be accessed anytime from any device, even offline.
Learn more »
comments
print report bad tab
guest
You may want to rate the tab now too:
select rating
Wanna post a correction for this tab? Suggest correction