Oops, an error
Loading. Please wait.

Milk And Cookies tab

3,727 views 15 this week
2 commentsread comments
1 2 3 4 5
x 5
add to favorites
×
Save as Personal and add changes to this tab that will be seen only by you. Learn more ›
×
You can save this tab as Personal to edit and correct it or add notes. All changes will be seen only by you. Learn more »
launch autoscroll
font size
0
reset
how to read this tab
guitar tuner
edit
Autoscroll
slow
fast
+/-
esc
set tempo
stop
Author
Difficulty
-------------------------------------------------------------------------------
                             MILK AND COOKIES - Melanie Martinez
-------------------------------------------------------------------------------

So I added the tabs for the intro and chorus, but if you want you could just play the chords
above instead, they both sound fine. 
Intro 
    Dm            C                G
e|---1--------1--------------------------------------------------------------|
B|------3----------1----------1------0----------------0----------------------|
G|---------2-----------0----------------0------------------------------------|
D|---o--------------------------------------0--------------------------------|
A|-----------------3--------3------------------------------------------------|
E|-----------------------------------3---------------------------------------|X2
Dm F G= verse

VERSE
Dm F  G
1, 2, melatonin is coming for you
Dm F  G
3, 4, baby, won't you lock the door?
Dm F  G
5, 6, I'm done with this
Dm         F                G
7, 8, it's getting late, so close your eyes, sleep for days

Dm           F     G
Hush, little baby, drink your spoiled milk
Dm          F           G
I'm fucking crazy, need my prescription filled
Dm             F                G
Do you like my cookies? They're made just for you
  Dm            F          G
A little bit of sugar, but lots of poison, too
Chorus
    Dm            C                G
e|---1--------1--------------------------------------------------------------|
B|------3----------1----------1------0--------0--0-----------0---------------|
G|---------2-----------0----------------0------------0-----------------------|
D|---0--------------------------------------0-------------0------------------|
A|-----------------3--------3------------------------------------------------|
E|-----------------------------------3------------3--------------------------|
 Ashes, ashes, time to go down
    Dm            C                G
e|---1--------1--------------------------------------------------------------|
B|------3----------1----------1------0--------0--0-----------0---------------|
G|---------2-----------0----------------0------------0-----------------------|
D|---0--------------------------------------0-------------0------------------|
A|-----------------3--------3------------------------------------------------|
E|-----------------------------------3------------3--------------------------|
 Ooh, honey do you want me now?
    Dm            C                G
e|---1--------1--------------------------------------------------------------|
B|------3----------1----------1------0--------0--0-----------0---------------|
G|---------2-----------0----------------0------------0-----------------------|
D|---0--------------------------------------0-------------0------------------|
A|-----------------3--------3------------------------------------------------|
E|-----------------------------------3------------3--------------------------|
 Can't take it anymore, need to put you to bed
    Dm            C                G
e|---1--------1--------------------------------------------------------------|
B|------3----------1----------1------0--------0--0-----------0---------------|
G|---------2-----------0----------------0------------0-----------------------|
D|---0--------------------------------------0-------------0------------------|
A|-----------------3--------3------------------------------------------------|
E|-----------------------------------3------------3--------------------------|
 Sing you a lullaby where you die at the end

VERSE
Dm F   G
9, 10, never want to see you again
Dm  F   G
11, 12, I pull off black so well
Dm              F                G
Shit behind the curtain that I'm sick of sugarcoatin'
Dm        F             G
Next time you're alone, think twice when you grab the phone

CHORUS X2

Please tell me what you think!

            
            
Suggest correction
Creating personal tab
Creating personal tab
You can edit any tab online and save it as your Personal.

You can edit, replace or remove any tab part or add personal notes – all changes will be seen only by you.

Personal tabs can be accessed anytime from any device, even offline.
Learn more »
comments
print report bad tab
2 comments total.
0 reply
Ciel Lim 10 Dec 02, 2016 06:59 AM

LOVE IT <3

0 reply
bethaniemaec 10 Sep 07, 2017 07:43 PM

Sounds good! I'm a huge Melanie Martinez fan so thank you for this!

guest
You may want to rate the tab now too:
select rating
Wanna post a correction for this tab? Suggest correction