Oops, an error
Loading. Please wait.

Smoke tab

719 views 33 this week
no commentswrite comment
1 2 3 4 5
1 last vote to show rating
add to favorites
×
Save as Personal and add changes to this tab that will be seen only by you. Learn more ›
×
You can save this tab as Personal to edit and correct it or add notes. All changes will be seen only by you. Learn more »
launch autoscroll
font size
0
reset
how to read this tab
guitar tuner
edit
Autoscroll
slow
fast
+/-
esc
set tempo
stop
[Intro]

e|-----------------------------------|
B|-------1---------1----------1---0--|
G|-----2---------0----------2-----1--|
D|---2---------2----------3-------2--|
A|-0---------3------3---3---------2--|
E|-----------------------------------|
  

[Verse]

  Too petty his little girl you've gone so far
e|----------------------------------------------|
B|-----1---------------------------------1------|
G|-----2---------------------------------0------|
D|---2---------------------------------2--------|
A|-0---------------------------------3----------|
E|----------------------------------------------|

  Keep begging until you're smiling you're a movie star
e|----------------------------------------------|
B|-----1---------------------------------1------|
G|-----2---------------------------------0------|
D|---2---------------------------------2--------|
A|-0---------------------------------3----------|
E|----------------------------------------------|

  Songs from the 50's your mama seems to sing
e|-----------------------------------------------|
B|-----1----------1-----------1-------------0----|
G|-----2----------0-----------2-------------1----|
D|---2----------2-----------3-------------2------|
A|-0----------3-----------3-------------2--------|
E|-----------------------------------------------|

  Oh, in the kitchen while she's making dinner for your family
e|------------------------------------------------------------|
B|---------1------------------1--------------1-----------0----|
G|---------2------------------0--------------2-----------1----|
D|-------2------------------2--------------3-------------2----|
A|-----0------------------3--------------3---------------2----|
E|------------------------------------------------------------|

Am

  Keep dreaming baby girl keep your head up high
e|----------------------------------------------|
B|-----1---------------------------------1------|
G|-----2---------------------------------0------|
D|---2---------------------------------2--------|
A|-0---------------------------------3----------|
E|----------------------------------------------|

  Waiting for your mama to sing lullabies 
e|----------------------------------------------|
B|-----1--------------1------------1------------|
G|-----2--------------0------------2------------|
D|---2--------------2------------3--------------|
A|-0--------------3------------3----------------|
E|----------------------------------------------|

  Well daddy isn't here and mama's smoking stacks
e|--------------------------------------------------|
B|--------1----------1-----------1---------0--------|
G|--------2----------0-----------2---------1--------|
D|------2----------2-----------3-----------2--------|
A|----0----------3-----------3-------------2--------|
E|--------------------------------------------------|

  Oh, headaches from the smoke you smell ain't getting rest
e|-----------------------------------------------------------|
B|---------1------------------1-----------------1-------0----|
G|---------2------------------0-----------------2-------1----|
D|-------2------------------2-----------------3---------2----|
A|-----0------------------3-----------------3-----------2----|
E|-----------------------------------------------------------|


[Chorus]

Am

G                                   Am
Closure to encourage and I'll be away
G                                         E
Sing yourself to sleep learn how to be afraid
G                                 Am
All you have is God, always a rivalry
G                                                 E
While your lungs are filled with all the smoke you breathe


[Verse]

  Don't you worry now you sleep you little thing
e|----------------------------------------------|
B|-----1---------------------------------1------|
G|-----2---------------------------------0------|
D|---2---------------------------------2--------|
A|-0---------------------------------3----------|
E|----------------------------------------------|

  Daddy will come back and therefore he will sing
e|----------------------------------------------|
B|-----1---------------------------------1------|
G|-----2---------------------------------0------|
D|---2---------------------------------2--------|
A|-0---------------------------------3----------|
E|----------------------------------------------|

  Sing your precious lullaby to you he will
e|----------------------------------------------|
B|-----1--------------1------------1------------|
G|-----2--------------0------------2------------|
D|---2--------------2------------3--------------|
A|-0--------------3------------3----------------|
E|----------------------------------------------|

  While mama smokes her cancer till the dawn still
e|-----------------------------------------------------|
B|---------1-------------1------------------------0----|
G|---------2-------------0------------------------1----|
D|-------2-------------2--------------------------2----|
A|-----0-------------3----------------3-----------2----|
E|-----------------------------------------------------|


[Chorus]

Am

G                                   Am
Closure to encourage and I'll be away
G                                           E
Sing yourself to sleep learn how to be afraid
G                                   Am
All you have is God, always a rivalry
G                                                 E
While your lungs are filled with all the smoke you breathe

Am

G                                   Am
Closure to encourage and I'll be away
G                                           E
Sing yourself to sleep learn how to be afraid
G                                   Am
All you have is God, always a rivalry
G                                                 E
While your lungs are filled with all the smoke you breathe

Am

            
            
Suggest correction
Creating personal tab
Creating personal tab
You can edit any tab online and save it as your Personal.

You can edit, replace or remove any tab part or add personal notes – all changes will be seen only by you.

Personal tabs can be accessed anytime from any device, even offline.
Learn more »
Give kudos to tab author, rate the tab!
1 2 3 4 5
comments
print report bad tab
guest
You may want to rate the tab now too:
select rating
Wanna post a correction for this tab? Suggest correction