Oops, an error
Loading. Please wait.

Bone Marrow bass

703 views 1 this week
no commentswrite comment
1 2 3 4 5
3 more votes to show rating
add to favorites
×
Save as Personal and add changes to this tab that will be seen only by you. Learn more ›
×
You can save this tab as Personal to edit and correct it or add notes. All changes will be seen only by you. Learn more »
launch autoscroll
font size
0
reset
guitar tuner
edit
Autoscroll
slow
fast
+/-
esc
set tempo
stop
Author
"Bone Marrow"
by Mellowdrone
Visit them at http://www.mellowdrone.com/
Tabbed by me

Note: This is not 100% correct, but I would appreciate it if you could tell me what I
wrong. I tried my best, though. In fact, I've realized that this is the wrong tab. I'll 
it as soon as I have time.

* - Play as many times as heard
/ - Slide up

INTRO:
G|-------------------------------------------------------------|
D|-------------------------------------------------------------|
A|-------------------------------------------------------------|
E|--9-9-9-9-9-9/12-12-5-5-5-5-5-5/8-8-0-0-0-0-0-0-0-0-0-0-0-0--| x3

Step back and shut the door, you know*
G|-----|
D|-----|
A|-----|
E|--8--|

I've never seen any of these people before*
G|-----|
D|-----|
A|-----|
E|--5--|

You know it sounds so nice when it comes a friend*
G|-----|
D|-----|
A|-----|
E|--8--|

I say we all get dolled up and let it begin*
G|-----|
D|-----|
A|-----|
E|--5--|

Slowly we sink, good as a weight
Hand it over softly, before somebody else gets hurt*
G|---------------------------|
D|---------------------------|
A|---------------------------|
E|--8--5--8------------------|

*
G|-------------------------------|
D|-------------------------------|
A|-------------------------------|
E|--5--3--1----------------------|

Light my hands on fire, my sweet angel
Take my oxygen, my bone marrow*
G|--------------------------------|
D|--------------------------------|
A|--------------------------------|
E|--8--5--12--7--8--5--12--7------|

Whatever you do, don't stop till you're through*
G|-----------|
D|-----------|
A|-----------|
E|--5--3-----|

It'll be alright, it'll be alright*
G|-----------|
D|-----------|
A|-----------|
E|--2--------|

Take my oxygen, my sweet angel*
G|----------------|
D|----------------|
A|----------------|
E|--8--5--12--7---|

Oh no, let's put
The drugs in*
G|-----|
D|-----|
A|-----|
E|--8--|

the back, just like old times in that brown pontiac*
G|-----|
D|-----|
A|-----|
E|--5--|

I used to be strong in the arms*
G|-----|
D|-----|
A|-----|
E|--8--|

But now they're small, they're small*
G|-----|
D|-----|
A|-----|
E|--5--|

Slowly we sink, good as a weight
Hand it over softly, before somebody else gets hurt*
G|------------------------|
D|------------------------|
A|------------------------|
E|--8--5--8---------------|

*
G|-----------------------|
D|-----------------------|
A|-----------------------|
E|--5--3--1--------------|

Light my hands on fire, my sweet angel*
Take my oxygen, my bone marrow*
G|--------------------------------|
D|--------------------------------|
A|--------------------------------|
E|--8--5--12--7--8--5--12--7------|

Whatever you do, don't stop till you're through*
G|-----------|
D|-----------|
A|-----------|
E|--5--3-----|

It'll be alright, it'll be alright*
G|-----------|
D|-----------|
A|-----------|
E|--2--------|

Take my oxygen, my sweet angel
G|----------------|
D|----------------|
A|----------------|
E|--8--5--12--7---|

G|------------|
D|------------|
A|------------|
E|---8---5----| (repeat about 7 times.)*

            
            
Suggest correction
Creating personal tab
Creating personal tab
You can edit any tab online and save it as your Personal.

You can edit, replace or remove any tab part or add personal notes – all changes will be seen only by you.

Personal tabs can be accessed anytime from any device, even offline.
Learn more »
Give kudos to tab author, rate the tab!
1 2 3 4 5
comments
print report bad tab
guest
You may want to rate the tab now too:
select rating
Wanna post a correction for this tab? Suggest correction