Oops, an error
Loading. Please wait.

Bone Marrow tab

version 1
version 1

Whole song

777 views 1 this week
no commentswrite comment
1 2 3 4 5
x 3
add to favorites
×
Save as Personal and add changes to this tab that will be seen only by you. Learn more ›
×
You can save this tab as Personal to edit and correct it or add notes. All changes will be seen only by you. Learn more »
launch autoscroll
font size
0
reset
how to read this tab
guitar tuner
edit
Autoscroll
slow
fast
+/-
esc
set tempo
stop
Author
Difficulty
"Bonemarrow"
by Mellowdrone

Notes: This is going to be a quick tab for a song only a few have probably even heard, but
it's so great it deserved a tab even only 5 people will ever look up the tab to play it.
This one is set up quite simply with just the parts tabbed out for you to piece them 
together. I've seen the lead singer  play the chorus chords as open chords in the video for the
song, so it's up to you what you think sounds better.Enjoy

Lyrics:
step back and shut the door, you know
i've never seen any of these people before
you know it sounds so nice when it comes a friend
i say we all get dolled up and let it begin

slowly we sink, good as a weight
hand it over softly, before somebody else gets hurt
light my hands on fire, my sweet angel
take my oxygen, my bone marrow
whatever you do, don't stop till you're through
it'll be alright, it'll be alright
take my oxygen, my sweet angel
oh no, let's put
the drugs in the back, just like old times in that brown pontiac
i use to be so strong in the arms
but now they're small, they're small 


 Bass Intro:
|-----------------|-------------------|
|-----------------|-------------------|
|-----------5-7-7-|-------------------|
|-8-8-8-8-8-------|-5-5-5-5-5-7-8-8---|



[ Guitar 1 w/light distortion and slide
[|------------------|-------------------|
[|------------------|-------------------|
[|------------------|--------------12///|
[|------------------|-------------------|
[|------------------|-------------------|
[|------------------|-------------------|
[
[|------------------|-------------------|
[|------------------|-------------------|
[|------------------|-------------------|
[|-0-0-0-0-0-0-0-0--|--0-0-0-0-0-3-3-3--|



Intro and Chorus figures:
   Guitar 1
[|-------------------------|--------------------------|
[|-------------------------|--------------------------|
[|/(9)9--------------------|--------------------------|
[|-------------------------|--------------------------|
[|-------------------------|--------------------------|
[|-------------------------|--------------------------|
[
[  Guitar 2 w/distortion
[|-------------------------|--------------------------|
[|-8--8--8--8--8--8--8--8--|--5--5--5--5--5--5--5--5--|
[|-9--9--9--9--9--9--9--9--|--5--5--5--5--5--5--5--5--|
[|-10-10-10-10-10-10-10-10-|--7--7--7--7--7--7--7--7--|
[|-10-10-10-10-10-10-10-10-|--7--7--7--7--7--7--7--7--|
[|-8--8--8--8--8--8--8--8--|--5--5--5--5--5--5--5--5--|
[
[  Guitar 3 w.distortion
[|-------------------------|--------------------------|
[|-------------------------|--------------------------|
[|-------------------------|--------------------------|
[|-10-10-10-10-10-10-10-10-|--10-10-10-10-10-10-10-10-|
[|-x--x--x--x--x--x--x--x--|--x--x--x--x--x--x--x--x--|
[|-8--8--8--8--8--8--8--8--|--8--8--8--8--8--8--8--8--|
[
[|-------------------------|--------------------------|
[|-------------------------|--------------------------|
[|----------------5--7--7--|--------------------------|
[|-8--8--8--8--8-----------|--5--5--5--5--5--7--8--8--|





[|-------------------------|-------------------------|
[|-0--0--0--0--0--0--0--0--|-0--0--0--0--0--0--0--0--|
[|-0--0--0--0--0--0--0--0--|-0--0--0--0--0--0--0--0--|
[|-2--2--2--2--2--2--2--2--|-2--2--2--2--2--2--2--2--|
[|-2--2--2--2--2--2--2--2--|-2--2--2--2--2--2--2--2--|
[|-0--0--0--0--0--0--0--0--|-0--0--0--0--0--0--0--0--|
[
[
[|-------------------------|-------------------------|
[|-------------------------|-------------------------|
[|-------------------------|-------------------------|
[|-9--9--9--9--9--9--9--9--|-9--9--9--9--9--9--9--9--|
[|-x--x--x--x--x--x--x--x--|-x--x--x--x--x--x--x--x--|
[|-7--7--7--7--7--7--7--7--|-7--7--7--7--7--7--7--7--|
[
[|-------------------------|-------------------------|
[|-------------------------|-------------------------|
[|-------------------------|-------------------------|
[|-0--0--0--0--0--0--0--0--|-0--0--0--0--0--3--3--3--|




Verses:

[ Guitar 1 (w/clean tone and tremolo)
[|----13----13----13----13-|----13----13----13----13-|
[|-17----17----15----15----|-13----13----12----12----|
[|-------------------------|-------------------------|
[|-------------------------|-------------------------|
[|-------------------------|-------------------------|
[|-------------------------|-------------------------|
[
[|-------------------------|-------------------------|
[|-------------------------|-------------------------|
[|-8--8--8--8--8--8--8--8--|-10-10-10-10-10-10-10-10-|
[|-------------------------|-------------------------|



[
[|----12----12----12----12-|----12----12----12----12|
[|-15----15----13----13----|-12----12---------------|
[|-------------------------|-------------14----14---|
[|-------------------------|------------------------|
[|-------------------------|------------------------|
[|-------------------------|------------------------|
[
[|-------------------------|--------------------9/--|
[|-------------------------|------------------9-----|
[|-12-12-12-12--7--7--7--7-|-0--0--0--0--0--7-------|
[|-------------------------|------------------------|



[
[|----13----13----13----13-|----13----13-----13---13-|
[|-17----17----15----15----|-13----13-----12----12---|
[|-------------------------|-------------------------|
[|-------------------------|-------------------------|
[|-------------------------|-------------------------|
[|-------------------------|-------------------------|
[
[|-------------------------|-------------------------|
[|-------------------------|-------------------------|
[|-8--8--8--8--8--8--8--8--|-10-10-10-10-10-10-10-10-|
[|-------------------------|-------------------------|



[
[|----------19----------19-|----------17----------17-|
[|----17----------17-------|----17----------17-------|
[|-17----17----17----17----|-17----17----17----17----|
[|-------------------------|-------------------------|
[|-------------------------|-------------------------|
[|-------------------------|-------------------------|
[
[|-------------------------|-----------------------9/|
[|-------------------------|---------------------9---|
[|-12-12-12-12--7--7--7--7-|-0--0--0--0--0--0--7-----|
[|-------------------------|-------------------------|



[
[|----13----13----13----13-|----13----13----13----13-|
[|-17----17----15----15----|-13----13----12----12----|
[|-------------------------|-------------------------|
[|-------------------------|-------------------------|
[|-------------------------|-------------------------|
[|-------------------------|-------------------------|
[
[|-------------------------|-------------------------|
[|-12-12-12-12-12-12-12-12-|----------------|--------|
[|-------------------------|-10-10-10-10-10-10-10-10-|
[|-------------------------|-------------------------|



[
[|----12----12----------19-|---------20-----------20-|
[|-15----15-------17-------|----17----------17-------|
[|-------------17----17----|-17----17----17----17----|
[|-------------------------|-------------------------|
[|-------------------------|-------------------------|
[|-------------------------|-------------------------|
[
[|-------------------------|-------------------------|
[|-------------------------|-------------------------|
[|-12-12-12-12-12-12-12-12-|-13-13-13-13-13-13-13-13-|
[|-------------------------|-------------------------|




[
[|----------20----------20-|-19----19-17----------17-15-|
[|----17----------17-------|-------------17----17-------|
[|-17----17----17----17----|----------------17----------|
[|-------------------------|----------------------------|
[|-------------------------|----------------------------|
[|-------------------------|----------------------------|
[
[|-------------------------|----------------------------|
[|-------------------------|----------------------------|
[|-12-12-12-12-12-12-12-12-|-10----10-10---10-10--10\---|
[|-------------------------|--------------------------3-|

            
            
Suggest correction
Creating personal tab
Creating personal tab
You can edit any tab online and save it as your Personal.

You can edit, replace or remove any tab part or add personal notes – all changes will be seen only by you.

Personal tabs can be accessed anytime from any device, even offline.
Learn more »
Give kudos to tab author, rate the tab!
1 2 3 4 5
comments
print report bad tab
guest
You may want to rate the tab now too:
select rating
Wanna post a correction for this tab? Suggest correction