Oops, an error
Loading. Please wait.

Get Out Of Town tab

67 views 3 this week
no commentswrite comment
1 2 3 4 5
3 more votes to show rating
add to favorites
×
Save as Personal and add changes to this tab that will be seen only by you. Learn more ›
×
You can save this tab as Personal to edit and correct it or add notes. All changes will be seen only by you. Learn more »
launch autoscroll
font size
0
reset
how to read this tab
guitar tuner
edit
Autoscroll
slow
fast
+/-
esc
set tempo
stop
[Verse]
   Get out of town    before it's too late, my love
     Gm                           D/F#
e|-----------------------------|---------------------------------------------|
B|---3-3----3-3----3-3----3-3--|----3-3---3-3----3--3---3-3------------------|
B|---3-3----3-3----3-3----3-3--|----2-2---2-2----2--2---2-2------------------| 
D|---0-0----0-0----0-0----0-0--|----0-0---0-0----0--0---0-0------------------|
A|-----------------------------|---------------------------------------------|
E|-3------3------3------3------|-2------2------2------2----------------------|

     Get out of town     be good to me please
      Gm                           D7sus4         C#m7b5  
e|-----------------------------|---------------------------------------------|
B|---3-3----3-3----3-3----3-3--|---------------------------------------------|
B|---3-3----3-3----3-3----3-3--|---12-12--12-12---12-12--12-12---------------| 
D|---0-0----0-0----0-0----0-0--|---10-10--10-10----9--9---9--9---------------|
A|-----------------------------|---------------------------------------------|
E|-3------3------3------3------|-10-----10------9-------9--------------------|

 Why wish me harm?       Why not retire to a farm?
    Cm              Cmb5           Hb6            Ebsus2#7
e|-----------------------------|---------------------------------------------|
B|---8-8----8-8----7-7----7-7--|---6-6------6-6---3-3-----3-3----------------|  
B|---8-8----8-8----8-8----8-8--|---5-5------5-5---3-3-----3-3----------------| 
D|-----------------------------|---0-0------0-0---3-3-----3-3----------------|
A|-----------------------------|----------------6------6---------------------|
E|-8-----8-------8-------8-----|--6------6-----------------------------------|

And be contented to charm? The birds off the trees
   Em7b5                Ebmaj7     Dsus4        Cm6     Cdim
e|-----------------------------|---------------------------------------------|
B|---3-3----3-3----3-3----3-3--|---------------------------------------------|  
B|---3-3----3-3----3-3----3-3--|---2-2------2-2---2-2-----2-2----------------|   
D|-------2-------2------1------|---5-5------5-5---5-5-----4-4----------------|
A|-----------------------------|-5------5-------3------3---------------------|
E|-0---------------------------|---------------------------------------------|

[Verse 2]
Just disappear        I care for you much too much
     Gm                           D/F#
e|-----------------------------|--------------------------------------------|
B|---3-3----3-3----3-3----3-3--|----3-3---3-3----3-3---3-3------------------|
B|---3-3----3-3----3-3----3-3--|----2-2---2-2----2-2---2-2------------------| 
D|---0-0----0-0----0-0----0-0--|----0-0---0-0----0-0---0-0------------------|
A|-----------------------------|--------------------------------------------|
E|-3------3------3------3------|-2------2------2-----2----------------------|

And when you are near Close to me, darling We touch too much
       Gm                           D7sus4         C#m7b5  
e|-----------------------------|---------------------------------------------|
B|---3-3----3-3----3-3----3-3--|---------------------------------------------|
B|---3-3----3-3----3-3----3-3--|---12-12--12-12---12-12--12-12---------------| 
D|---0-0----0-0----0-0----0-0--|---10-10--10-10----9--9---9--9---------------|
A|-----------------------------|---------------------------------------------|
E|-3------3------3------3------|-10-----10------9-------9--------------------|

The thrill when we meet Is so bittersweet That, darling, it's getting me down
    Cm              Ebm6add9       Hb/D           G7#5
e|-----------------------------|---------------------------------------------|
B|---8-8----8-8----6-6----6-6--|------------------4-4-----4-4----------------|  
B|---8-8----8-8----5-5----5-5--|---3-3------3-3---4-4-----4-4----------------|  
D|-----------------4-4----4-4--|---3-3------3-3---3-3-----3-3----------------|
A|--------------6-------6------|-5-------5-----------------------------------|
E|-8-----8---------------------|----------------3------3---------------------|

So, on your mark, get set Get out of town...
   Cm7              F     F#dim   Gm              D/F#
e|-----------------------------|---------------------------------------------|
B|---4-4----4-4----------------|---3-3------3-3---3-3-----3-3----------------|  
B|---3-3----3-3----2-2----2-2--|---3-3------3-3---2-2-----2-2----------------|  
D|---5-5----5-5----------------|---0-0------0-0---0-0-----0-0----------------|
A|-3-----3---------3-3----3-3--|---------------------------------------------|
E|--------------1-------2------|-3------3-------2------2---------------------|

[Instrumental]
       Gm                           D/F#
e|-----------------------------|---------------------------------------------|
B|---3-3----3-3----3-3----3-3--|----3-3---3-3----3--3---3-3------------------|
B|---3-3----3-3----3-3----3-3--|----2-2---2-2----2--2---2-2------------------| 
D|---0-0----0-0----0-0----0-0--|----0-0---0-0----0--0---0-0------------------|
A|-----------------------------|---------------------------------------------|
E|-3------3------3------3------|-2------2------2------2----------------------|

    Gm                           D7sus4  D7b5    C#m7b5  
e|-----------------------------|---------------------------------------------|
B|---3-3----3-3----3-3----3-3--|---------------------------------------------|
B|---3-3----3-3----3-3----3-3--|---12-12--13-13---12-12--12-12---------------| 
D|---0-0----0-0----0-0----0-0--|---10-10--10-10----9--9---9--9---------------|
A|-----------------------------|---------------------------------------------|
E|-3------3------3------3------|-10-----10------9-------9--------------------|

    Cm            Hm6#5   Hm6b5    Hb6            Ebsus2#7
e|-----------------------------|---------------------------------------------|
B|---8-8----8-8----8-8----6-6--|---6-6------6-6---3-3-----3-3----------------|  
B|---8-8----8-8----7-7----7-7--|---5-5------5-5---3-3-----3-3----------------| 
D|-----------------6-6----6-6--|---0-0------0-0---3-3-----3-3----------------|
A|-----------------------------|----------------6------6---------------------|
E|-8-----8-------7-------7-----|--6------6-----------------------------------|

   Em7b5                Ebmaj7     Dsus4        Cm6   Cdim
e|-----------------------------|---------------------------------------------|
B|---3-3----3-3----3-3----3-3--|---------------------------------------------|  
B|---3-3----3-3----3-3----3-3--|---2-2------2-2---2-2--2---------------------|   
D|---5-5----5-5----5-5----5-5--|---5-5------5-5---5-5--4---------------------|
A|---------------6------6------|-5------5-------3------3---------------------|
E|-0-----0---------------------|---------------------------------------------|

[Verse 3]
Just disappear        I care for you much too much
     Gm                                         D/F#
e|-----------------------------|---------------------------------------------|
B|---3-3----3-3----3-3----3-3--|----3-3---3-3----3--3---3-3------------------|
B|---3-3----3-3----3-3----3-3--|----3-3---3-3----2--2---2-2------------------| 
D|---0-0----0-0----0-0----0-0--|----0-0---0-0----0--0---0-0------------------|
A|-----------------------------|---------------------------------------------|
E|-3------3------3------3------|-3------3------2------2----------------------|

And when you are near Close to me, darling We touch too much
       Gm                           D7sus4         C#m7b5  
e|-----------------------------|---------------------------------------------|
B|---3-3----3-3----3-3----3-3--|---------------------------------------------|
B|---3-3----3-3----3-3----3-3--|---12-12--12-12---12-12--12-12---------------| 
D|---0-0----0-0----0-0----0-0--|---10-10--10-10----9--9---9--9---------------|
A|-----------------------------|---------------------------------------------|
E|-3------3------3------3------|-10-----10------9-------9--------------------|

The thrill when we meet Is so bittersweet That, darling, it's getting me down
    Cm             Ebm7 Ebm7add9   Hb/D           G7#5
e|-----------------------------|---------------------------------------------|
B|---8-8----8-8------7----6-6--|------------------4-4-----4-4----------------|  
B|---8-8----8-8------6----6-6--|---3-3------3-3---4-4-----4-4----------------|  
D|-----------------4-4----4-4--|---3-3------3-3---3-3-----3-3----------------|
A|--------------6-------6------|-5-------5-----------------------------------|
E|-8-----8---------------------|----------------3------3---------------------|

So, on your mark, get set Get out of town...
   Cm7              F     F#dim   Gm              D/F#
e|-----------------------------|---------------------------------------------|
B|---4-4----4-4----------------|---3-3------3-3---3-3-----3-3----------------|  
B|---3-3----3-3----2-2----2-2--|---3-3------3-3---3-3-----3-3----------------|  
D|---5-5----5-5----------------|---0-0------0-0---0-0-----0-0----------------|
A|-3---------------3-3----3-3--|---------------------------------------------|
E|-------3------1-------2------|-3------3-------3------3---------------------|

            
            
Suggest correction
Creating personal tab
Creating personal tab
You can edit any tab online and save it as your Personal.

You can edit, replace or remove any tab part or add personal notes – all changes will be seen only by you.

Personal tabs can be accessed anytime from any device, even offline.
Learn more »
Give kudos to tab author, rate the tab!
1 2 3 4 5
comments
print report bad tab
guest
You may want to rate the tab now too:
select rating
Wanna post a correction for this tab? Suggest correction