Oops, an error
Loading. Please wait.

Holes tab

version 1
version 1

Whole song

82 views 3 this week
no commentswrite comment
1 2 3 4 5
3 more votes to show rating
add to favorites
×
Save as Personal and add changes to this tab that will be seen only by you. Learn more ›
×
You can save this tab as Personal to edit and correct it or add notes. All changes will be seen only by you. Learn more »
launch autoscroll
font size
0
reset
how to read this tab
guitar tuner
edit
Autoscroll
slow
fast
+/-
esc
set tempo
stop
-------------------------------------------------------------------------------
                             Holes - Melpo Mene
-------------------------------------------------------------------------------
Song by: Erik Mattiason of Melpo Mene
Tabbed by: Nico Antoni
E-mail: nicleeant@gmail.com

Tuning: Standard Tuning E-A-D-G-B-e

Capo 3rd Fret or 4th Fret (depending on the version)

I use my thumb for lower strings and index and middle for the higher ones in 
each chord. Enjoy!

Here's a guideline for finger placement during chord changes:

 000232
 030010
 300000
 022000

Part played throughout first part of song: (most of the song)    
e|--5---3---2---0-|--3---2---0------|-----------------|----------------------|
B|---3---3---3----|---1---1---1---3-|--3---1---0------|----------------------|
G|----------------|-----------------|---0---0---0---2-|--0---4---2---4-------|
D|-0---0---0---0--|-----------------|-----------------|---2---2---2----------|
A|----------------|-3---3---3---3---|-----------------|----------------------|
E|----------------|-----------------|-3---3---3---3---|-0---0---0---0--------|

This is the second section, he switches to this and plays it for the remainder 
of the song.

   
e|------------|---2-3p2-----0-3p0------0-1-3-1-0-----------------------------|
B|------------|--3------3--1------1-3---------------0------------------------|
G|------------|------------------------------------0-0-----------------------|
D|-2-2-2-2----|-0---------------------------------2---4----------------------|
A|-2-2-2-2-x4-|-----------3--------------------------------------------------|
E|-0-0-0-0----|-----------------------3----------0---------------------------|


************************************

| /   slide up
| \   slide down
| h   hammer-on
| p   pull-off
| ~   vibrato
| +   harmonic
| x   Mute note
| b   Bend
| pb  Pre-bend
| br  Bend release
| pbr Pre-bend release
| brb Bend release bend

************************************

            
            
Suggest correction
Creating personal tab
Creating personal tab
You can edit any tab online and save it as your Personal.

You can edit, replace or remove any tab part or add personal notes – all changes will be seen only by you.

Personal tabs can be accessed anytime from any device, even offline.
Learn more »
Give kudos to tab author, rate the tab!
1 2 3 4 5
comments
print report bad tab
guest
You may want to rate the tab now too:
select rating
Wanna post a correction for this tab? Suggest correction