Oops, an error
Loading. Please wait.

Pearl Bomb bass

by Melvins
2,499 views 1 this week
no commentswrite comment
1 2 3 4 5
3 more votes to show rating
add to favorites
×
Save as Personal and add changes to this tab that will be seen only by you. Learn more ›
×
You can save this tab as Personal to edit and correct it or add notes. All changes will be seen only by you. Learn more »
launch autoscroll
font size
0
reset
guitar tuner
edit
Autoscroll
slow
fast
+/-
esc
set tempo
stop
Author
Song: Pearl Bomb
Album: Houdini
Artist: The Melvins
Transcribed by: tituzz2     -VValter-
Mail: walter_20xx@hotmail.com


Note: pm  -> palm mute
      /   -> slide


1° Riff:
 pm
|-----------------|
|-----------------|
|-7---------------|
|--0-0-0-0-0-7-6~-|

|-----------------------------------------------------------||
|-----------------------------------------------------------||
|-----------------------------------------------------------||
|-0-2-0-5-0-0-0-0-0-2-0-3-0-0-0-0-0-2-3-2-3-1-2-1-2-1-2-1-2-||


2° Riff:
     
|----------------------------------------------|
|----------------------------------------------|
|------------------------------------7---------|
|-0-1-0-1-2-1-0-3-2-1-\7-7-6---0-6-0---7-7-6-6-|
 

3° Riff:

|-------------------------------------|
|-------------------------------------|
|-------------------------------7-6---|
|-0-0-0-0-0-0-0-0-0-0-0-0-0-0-0-----0-|


Last Riff

|--------------------------------------|
|--------------------------------------|
|-7-6---7-6---7-6---7-6---7-6--6---6-6-|
|--------------------------------------|

GUITAR1	  
1° riff   x12
2° riff   x4                         Isabel
3° riff   x6                             te amo!! dorogaya!!
Last riff


that's all .. any questions, doubts or whatever...
write me -> walter_20xx@hotmail.com

            
            
Suggest correction
Creating personal tab
Creating personal tab
You can edit any tab online and save it as your Personal.

You can edit, replace or remove any tab part or add personal notes – all changes will be seen only by you.

Personal tabs can be accessed anytime from any device, even offline.
Learn more »
Give kudos to tab author, rate the tab!
1 2 3 4 5
comments
print report bad tab
guest
You may want to rate the tab now too:
select rating
Wanna post a correction for this tab? Suggest correction