Oops, an error
Loading. Please wait.
We have Chord Pro version of Miles Away.
It's the closest thing you can get to the original song and it has interactive parts. Check out the tab »
×
15,898 views 6 this week
1 commentread comment
1 2 3 4 5
x 3
add to favorites
×
Save as Personal and add changes to this tab that will be seen only by you. Learn more ›
×
You can save this tab as Personal to edit and correct it or add notes. All changes will be seen only by you. Learn more »
launch autoscroll
font size
0
reset
how to read this tab
guitar tuner
edit
Autoscroll
slow
fast
+/-
esc
set tempo
stop
----------------------------------------------
Song: Miles Away (Acoustic)
Artist: Memphis May Fire (Ft. Kellin Quinn)
Album: Challenger

------------------------------------------------
Tabbed by: Noriel
Tuning: Drop C (C G C F A D)

Intro

D|----------------------------------------------------------|
A|----------------------------------------------------------|
F|----------------------------------------------------------|
C|--9-8-6---------------------------------------------------|
G|--9-8-6---------------------------------------------------|
C|--9-8-6---------------------------------------------------|

Verse 1

D|----------------------------------------------------------|
A|----------------------------------------------------------|
F|----------------------------------------------------------|
C|--6-6-6-6-6-6-6-6-9-9-9-9-9-9-9-4-4-4-4-4-4-4-4-4-4-4-4---|
G|--6-6-6-6-6-6-6-6-9-9-9-9-9-9-9-4-4-4-4-4-4-4-4-4-4-4-4---|
C|--6-6-6-6-6-6-6-6-9-9-9-9-9-9-9-4-4-4-4-4-4-4-4-4-4-4-4---|

D|----------------------------------------------------------|
A|----------------------------------------------------------|
F|----------------------------------------------------------|
C|--2-2-2-2-2-2-2-2-2-2-2-2-4-4-4-4-6-6-6-6-8-8-8-8-9-9-9-9-|
G|--2-2-2-2-2-2-2-2-2-2-2-2-4-4-4-4-6-6-6-6-8-8-8-8-9-9-9-9-|
C|--2-2-2-2-2-2-2-2-2-2-2-2-4-4-4-4-6-6-6-6-8-8-8-8-9-9-9-9-|

D|----------------------------------------------------------|
A|----------------------------------------------------------|
F|----------------------------------------------------------|
C|--6-6-6-6-6-6-6-6-9-9-9-9-9-9-9-4-4-4-4-4-4-4-4-4-4-4-4---|
G|--6-6-6-6-6-6-6-6-9-9-9-9-9-9-9-4-4-4-4-4-4-4-4-4-4-4-4---|
C|--6-6-6-6-6-6-6-6-9-9-9-9-9-9-9-4-4-4-4-4-4-4-4-4-4-4-4---|

D|----------------------------------------------------------------------------------|
A|----------------------------------------------------------------------------------|
F|----------------------------------------------------------------------------------|
C|--2-2-2-2-2-2-2-2-2-2-2-2-2-2-2-2-2-2-2-2-2-2-2-2-4-4-4-4-6-6-6-6-8-8-8-8-9-9-9-9-|
G|--2-2-2-2-2-2-2-2-2-2-2-2-2-2-2-2-2-2-2-2-2-2-2-2-4-4-4-4-6-6-6-6-8-8-8-8-9-9-9-9-|
C|--2-2-2-2-2-2-2-2-2-2-2-2-2-2-2-2-2-2-2-2-2-2-2-2-4-4-4-4-6-6-6-6-8-8-8-8-9-9-9-9-|

Chorus

D|----------------------------------------------------------|
A|----------------------------------------------------------|
F|----------------------------------------------------------|
C|-6-6-6-6-6-6-6-4-4-4-4-4-4-4-2-2-2-2-2-2-2-2-2-2-2-2------|
G|-6-6-6-6-6-6-6-4-4-4-4-4-4-4-2-2-2-2-2-2-2-2-2-2-2-2------|
C|-6-6-6-6-6-6-6-4-4-4-4-4-4-4-2-2-2-2-2-2-2-2-2-2-2-2---4x-|

Repeat Verse
Repeat Chorus

Bridge (Kellin Quinn)

D|----------------------------------------------------------|
A|----------------------------------------------------------|
F|------------------------------4-4-4-4-4-4-4-6-6-6-6-6-6-6-|
C|--6-6-6-6-6-6-6-4-4-4-4-4-4-4-4-4-4-4-4-4-4-6-6-6-6-6-6-6-|
G|--6-6-6-6-6-6-6-4-4-4-4-4-4-4-2-2-2-2-2-2-2-4-4-4-4-4-4-4-|
C|--6-6-6-6-6-6-6-4-4-4-4-4-4-4-x-x-x-x-x-x-x-x-x-x-x-x-x-x-|

Repeat Chorus

I pack my bags and say goodbye to my wife for what seems like the millionth time. They 
said it gets easier, but they lied. She looks at me and says "Really baby? I will be just 
fine," but then she looks away so I don't have to see her cry. And that is when I ask myself;

How am I supposed to be everything they expect me to be when I feel so alone, cause I 
left my heart at home. She needs me, but I know they need me too. So God, give me the 
strength to do what you created me to do.

Really I'm so thankful for the people I meet, the places I've been and the things I've 
seen, but when she's not here it doesn't feel like I'm living my dream. I know they say 
that no one is perfect, but I swear she's perfect for me and that makes it so much 
harder to leave.

How am I supposed to be everything they expect me to be when I feel so alone, cause I 
left my heart at home. She needs me, but I know they need me too. So God, give me the 
strength to do what you created me to do.

If you miss me, I'm just a phone call away. Please be strong, be strong for me. I need 
you to show me how to change the inside of me. For my heart, for their sake. Be strong, 
be strong for me!

How am I supposed to be everything they expect me to be when I feel so alone, so alone!

How am I supposed to be everything they expect me to be when I feel so alone, cause I 
left my heart at home. She needs me, but I know they need me too. So God, give me the 
strength to do what you created me to do.

            
            
Suggest correction
Creating personal tab
Creating personal tab
You can edit any tab online and save it as your Personal.

You can edit, replace or remove any tab part or add personal notes – all changes will be seen only by you.

Personal tabs can be accessed anytime from any device, even offline.
Learn more »
Give kudos to tab author, rate the tab!
1 2 3 4 5
comments
print report bad tab
1 comment total.
0 reply
tristen_jones 131 Feb 27, 2014 05:18 AM

Pretty accurate and simple for the acoustic version. Just need to figure out the rest of each chord and this could be pretty solid. Good start though.

guest
Wanna post a correction for this tab? Suggest correction