Oops, an error
Loading. Please wait.

Beneath A Burning Sky tab

version 1
version 1

Whole song

by Mendeed
703 views 1 this week
2 commentsread comments
1 2 3 4 5
2 more votes to show rating
add to favorites
×
Save as Personal and add changes to this tab that will be seen only by you. Learn more ›
×
You can save this tab as Personal to edit and correct it or add notes. All changes will be seen only by you. Learn more »
launch autoscroll
font size
0
reset
how to read this tab
guitar tuner
edit
Autoscroll
slow
fast
+/-
esc
set tempo
stop
Author
Difficulty
SONG: BENEATH A BURNING SKY
ALBUM: THIS WAR WILL LAST FOREVER
BAND: MENDEED

i've only done one guitar part.
any corrections are welcome.
i think its mostly correct.
please rate and comment

DROP D TUNING

riff 1
|---------------------------------------|
|---------------------------------------|
|---------------------------------------| x3
|----------------------------5-5h6------|
|-6-5-6-8-6-5-5h6--6-5-6-8-6------------|
|---------------------------------------|


riff 2
|-----------------------------------------|
|-----------------------------------------|
|--------------------------------7h8p7h8--| x1
|------------------------5h6p5h6----------|
|-6-5-6-8-6-5-5h6--6-5-6------------------|
|-----------------------------------------|


riff 3
|----------------------------------|
|----------------------------------|
|----------------------------------| x2
|-3-3-3-3-3-3-4-4-3-3-3-3-3-3-7-5--|
|-3-3-3-3-3-3-4-4-3-3-3-3-3-3-7-5--|
|-3-3-3-3-3-3-4-4-3-3-3-3-3-3-7-5--|


riff 1
|---------------------------------------|
|---------------------------------------|
|---------------------------------------| x4
|----------------------------5-5h6------|
|-6-5-6-8-6-5-5h6--6-5-6-8-6------------|
|---------------------------------------|


riff 4
|---------------------------------------------------------------------|
|---------------------------------------------------------------------|
|---------------------------------------------------------------------| x2
|-------5-6-5------------5-6-5----------------------------------------|
|-4-7-6-------7-6--4-7-6-------7-6--------4-6-4------------4-6-4------|
|-----------------------------------6-9-8-------9-8--6-9-8-------9-8--|


riff 5
|---------------------|
|---------------------|
|------8----9-8-------| x8
|-9-11---11-----11-9--|
|---------------------|
|---------------------|


riff 6
|------------------------------|
|------------------------------|
|------------------3-4----3-4--| x4
|-66-8-9-66-8-9-22-----22------|
|-66-----66-----22-----22------|
|-66-----66-----22-----22------|


riff 7
|-----------------------------------------------|      ______________
|-----------------------------------------------|     |these are ones|
|-----------------------------------------------| x4  |NOT elevens   | 
|-1111-11--1111-11---1111-11--111-11---1111-11--|     |______________|
|-1111-11--1111-11---1111-11--111-11---1111-11--|
|-1111-11--1111-11---1111-11--111-11---1111-11--|


riff 8
|------------------------------|
|------------------------------|
|---------------------------1--| x2
|-1111-1-1111-3-1111-4-1111----|
|-1111---1111---1111---1111----|
|-1111---1111---1111---1111----|

|------------------------------|
|------------------------------|
|-------------1------3------4--| x2
|-1111-4-1111---1111---1111----|
|-1111---1111---1111---1111----|
|-1111---1111---1111---1111----|


riff 7
|-----------------------------------------------|      ______________
|-----------------------------------------------|     |these are ones|
|-----------------------------------------------| x2  |NOT elevens   | 
|-1111-11--1111-11---1111-11--111-11---1111-11--|     |______________|
|-1111-11--1111-11---1111-11--111-11---1111-11--|
|-1111-11--1111-11---1111-11--111-11---1111-11--|


riff 1
|---------------------------------------|
|---------------------------------------|
|---------------------------------------| x3
|----------------------------5-5h6------|
|-6-5-6-8-6-5-5h6--6-5-6-8-6------------|
|---------------------------------------|


riff 2
|-----------------------------------------|
|-----------------------------------------|
|--------------------------------7h8p7h8--| x1
|------------------------5h6p5h6----------|
|-6-5-6-8-6-5-5h6--6-5-6------------------|
|-----------------------------------------|


riff 9
|-----------------------------------------|
|-----------------------------------------|
|-----------------------------------------| x4
|-1111-----1111-----1111-4p3-3h4h6-4h6h8--|
|-1111-6p5-1111-8p6-1111------------------|
|-1111-----1111-----1111------------------|


riff 10
|------------------------------------|
|------------------------------------|
|------------------------------------| x2
|-4-x-x--3-x-x--1-x-x-x-x-x-x-x-x-x--|
|-4-x-x--3-x-x--1-x-x-x-x-x-x-x-x-x--|
|-4-x-x--3-x-x--1-x-x-x-x-x-x-x-x-x--|


riff 11
|-------------|
|-------------|
|-------------|
|-9~---9--11--|
|-9~---9--11--|
|-9~---9--11--|


between about 3:50 and 4:20 there is the first half of a big solo, which i havnt yet figured out...
the parts which i have are the second half of the solo, starting at 4:20:

part 1
|---------------------------------------------------------|
|------7~----------7~----------7~--11-9----------9-11-9~--|
|-8~-6----8p6-/8-6----8p6-/8-6----------11-10-11----------| x1
|---------------------------------------------------------|
|---------------------------------------------------------|
|---------------------------------------------------------|


part 2 (4:33)
|-----------------------------------------------------|
|-----------------------------------------------------|
|-11~-10-15~-13~--10h11-10-15~-13~--10h11-10-15~-13~--| x1
|-----------------------------------------------------|
|-----------------------------------------------------|
|-----------------------------------------------------|

|---------------------------|
|-14-12----------12-14-12~--|
|-------15-13-15------------| x1
|---------------------------|
|---------------------------|
|---------------------------|


part 3 (4:46)
|-----------------------------------|
|---------14~----------14-12--------|
|-11~--15------11~--15-------15-13--| x1
|-----------------------------------|
|-----------------------------------|
|-----------------------------------|


part 4 (4:53)
|--------------------------------------|
|-----9-11~--14-12----------12-14-12~--|
|-8~---------------15-13-15------------| x1
|--------------------------------------|
|--------------------------------------|
|--------------------------------------|


riff 7
|-----------------------------------------------|      ______________
|-----------------------------------------------|     |these are ones|
|-----------------------------------------------| x1  |NOT elevens   | 
|-1111-11--1111-11---1111-11--111-11---1111-11--|     |______________|
|-1111-11--1111-11---1111-11--111-11---1111-11--|
|-1111-11--1111-11---1111-11--111-11---1111-11--|

enjoy...

            
            
Suggest correction
Creating personal tab
Creating personal tab
You can edit any tab online and save it as your Personal.

You can edit, replace or remove any tab part or add personal notes – all changes will be seen only by you.

Personal tabs can be accessed anytime from any device, even offline.
Learn more »
Give kudos to tab author, rate the tab!
1 2 3 4 5
comments
print report bad tab
2 comments total.
0 reply
metalhead77 10 Jul 15, 2006 08:09 AM

This tab is better than "the reaper waits" tab, it should be in drop C# Steven Nixon from Mendeed told me that.

0 reply
burdenlorna 10 Feb 27, 2007 01:20 AM

as far as im aware they play in Eb standard....and i also heard this from steven lol

guest
You may want to rate the tab now too:
select rating
Wanna post a correction for this tab? Suggest correction