Oops, an error
Loading. Please wait.

Hope Dies Last chords

79 views 3 this week
no commentswrite comment
1 2 3 4 5
x 8
add to favorites
×
Save as Personal and add changes to this tab that will be seen only by you. Learn more ›
×
You can save this tab as Personal to edit and correct it or add notes. All changes will be seen only by you. Learn more »
launch autoscroll
font size
0
reset
transpose
0
reset
display chords
guitar tuner
edit
Autoscroll
slow
fast
+/-
esc
set tempo
stop
Strumming
There is no strumming pattern for this song yet. and get +5 IQ
SONG:   HOPE DIES LAST (ACOUSTIC)  
ARTIST: MENTAL ISSUES 
VIDEO:  https://youtu.be/Bt97k74eXEE
TAB BY: DON CZARSKI
EMAIL:  GUITARZAN7@HOTMAIL.COM


        HOPE DIES LAST (ACOUSTIC)  
             MENTAL ISSUES 


CAPO: 2nd FRET

INTRO:
D E F#m    D E F#m F#m
D E F#m    D E F#m F#m

 D  E  F#m
Woh woh oh

 D  E  F#m   E   E    D  F#m
Woh woh oh   woh woh woh oh

E   E    D  E      Bm     
Woh woh woh oh


VERSE:
D                   F#m
  You always seem to be
                     D
Hellbent on getting your way

Since you're always
F#m        A        D
Trying to fuck with me

 D             F#m
But I will nev-er
                  D
Let you get under my skin
                    F#m
To take what I've created
     A             D
And tear it down again


CHORUS:
    A          E     F#m
No matter how hard I try
       D             E          D
You're always still laughing at me
    E               F#m
But I will not give in
         A    E          Bm
Because hope dies last!


BREAK:
 D
Broken
 C#m              Bm
Down but never defeated
               A         D  E
I will not surrender to you


CHORUS:
    D      E     F#m
No matter what I do
E         F#m     E     D   E
It never seems to be enough
     D         E  F#m
To change the outcome
E        F#m       E       D    E
I always fall back to the start 


CHORUS:
    D      E     F#m
No matter what I do
E         F#m     E     D   E
It never seems to be enough
     D         E  F#m
To change the outcome
E        F#m       E       D    E
I always fall back to the start 


INSTRUMENTAL/SOLO:
D  E   A

   F#m      E              D
We are the kings of this world!


OUTRO: GUITAR 1:
D  E   A  F#m  E  A D


SOLO
GUITAR 2:  (All notes relative to the capo)
           Thanks to ayreon77 for this solo tab.
02:29                             s
e|---------9-----h---|----------9\12----|
B|---7-------9--9-10-|--s--7---------10-|
G|-9---9-------------|-7\9---9----------|
D|-------------------|------------------|
A|-------------------|------------------|
E|-------------------|------------------|

              s
e|-----------7\9------h-----s--------h--p--------|
B|--s---7---------9--9-10-10\12-10--9-10-9-------|
G|-7\9----9---------------------------------9-11-|
D|-----------------------------------------------|
A|-----------------------------------------------|
E|-----------------------------------------------|

          s                   s
e|-------7\9------h----------9\12--------h----b----|
B|------------9--9-10--------------10--10-12-12~~~-|
G|-9-11----------------9-11------------------------|
D|-------------------------------------------------|
A|-------------------------------------------------|
E|-------------------------------------------------|


e|---p---------h--p-------s-|----h--------|
B|-12-10-12--10-12-10-9-10\-|-5-5-7-7~~~~-|
G|--------------------------|-------------|
D|--------------------------|-------------|
A|--------------------------|-------------|
E|--------------------------|-------------|



================ WITHOUT CAPO =================


02:29                                 s
e|---------11-------h---|-----------11\14----|
B|----9-------11--11-12-|--s---9----------12-|
G|-11---11--------------|-9\11---11----------|
D|----------------------|--------------------|
A|----------------------|--------------------|
E|----------------------|--------------------|

              s
e|-----------9\11-------h-----s---------h--p---------|
B|--s---9---------11--11-12-12\14-12--11-12-11-------|
G|-9\11---11-----------------------------------11-13-|
D|---------------------------------------------------|
A|---------------------------------------------------|
E|---------------------------------------------------|

          s                      s
e|-------9\11-------h----------11\14-------h----b----|
B|------------11--11-12--------------12--12-14-14~~~-|
G|-11-13----------------11-13------------------------|
D|---------------------------------------------------|
A|---------------------------------------------------|
E|---------------------------------------------------|


e|---p---------h--p--------s-|----h--------|
B|-14-12-14--12-14-12-11-12\-|-7-7-9-9~~~~-|
G|---------------------------|-------------|
D|---------------------------|-------------|
A|---------------------------|-------------|
E|---------------------------|-------------|

            
            
Suggest correction
Creating personal tab
Creating personal tab
You can edit any tab online and save it as your Personal.

You can edit, replace or remove any tab part or add personal notes – all changes will be seen only by you.

Personal tabs can be accessed anytime from any device, even offline.
Learn more »
comments
print report bad tab
guest
You may want to rate the tab now too:
select rating
Wanna post a correction for this tab? Suggest correction