Oops, an error
Loading. Please wait.

Locked Without A Key tab

40 views 1 this week
no commentswrite comment
1 2 3 4 5
x 3
add to favorites
×
Save as Personal and add changes to this tab that will be seen only by you. Learn more ›
×
You can save this tab as Personal to edit and correct it or add notes. All changes will be seen only by you. Learn more »
launch autoscroll
font size
0
reset
how to read this tab
guitar tuner
edit
Autoscroll
slow
fast
+/-
esc
set tempo
stop
http://www.myspace.com/mentalityrock
You can hear the demo there as of 8/13/2010

Tuning: Drop D
Mentality-Locked Without A Key   just a fun song to play..

EVERY TIME YOU COME AROUND....

Play both twice
E----------------------------------------------------|
B----------------------------------------------------|
G----------------------------------------------------|
D-2-2-2--2-2-(2)-7-5-4-4h5p4p0-2-2-2--2-2-(2)-/5-4-5-|
A-2-2-2--2-2-(2)---------------2-2-2--2-2-(2)--------|
D-2-2-2--2-2-(2)---------------2-2-2--2-2-(2)--------|
  * * *  *       * * *         * * *  *

E----------------------------------------------------------------|
B----------------------------------------------------------------|
G-5-5-5--5-5-(5)-------------------------------------------------|
D-5-5-5--5-5-(5)-5-4-5-7-5-4-5-5-5-5--5-5-5-7-5-4-4-4--4-4h5p4---|
A-3-3-3--3-3-(3)---------------5-5-5--5-5-5-----4-4-4--4-------5-|
D------------------------------5-5-5--5-5-5-----4-4-4--4---------|
  * *    *       * * * * * * * * * *  * * *     * * *  *
Verse:

I feel this..
Im not afraid..

Gtr. 1   Play Twice
E--------------------------------------------------------|
B--------------------------------------------------------|
G------------x32!-5-555-5-555-5-555-5/7\5----------------|
D-22222222222-----5-555-5-555-5-555-5/7\5-5-555-5(5)-5-4-|
A-22222222222-----3-333-3-333-3-333-3/5\3-5-555-5(5)-5-4-|
D-22222222222-----------------------------5-555-5(5)-5-4-|
  ***********       ***   ***   ***         ***      *

Gtr. 2
E----------------------------------------------------10----------|
B-55557777888810101010777788881010101012121212-10/12----12-10-12-|
G----------------------------------------------------------------|
D----------------------------------------------------------------|
A----------------------------------------------------------------|
D----------------------------------------------------------------|

Grt. 2
E--------10----------10-12--10-12-10-12-10-|
B--10/12----12-10-12-----------------------|
G------------------------------------------|
D------------------------------------------|
A------------------------------------------|
D------------------------------------------|

Gtr. 2
E----------------------------------------------------10----------|
B-55557777888810101010777788881010101012121212-10/12----12-10-12-|
G----------------------------------------------------------------|
D----------------------------------------------------------------|
A----------------------------------------------------------------|
D----------------------------------------------------------------|

Grt. 2
E--------10----------10-12--10-12-10-12-(12)-|
B--10/12----12-10-12-------------------------|
G--------------------------------------------|
D--------------------------------------------|
A--------------------------------------------|
D--------------------------------------------|

Chorus:

Every time you come around..


Play both twice
E----------------------------------------------------|
B----------------------------------------------------|
G----------------------------------------------------|
D-2-2-2--2-2-(2)-7-5-4-4h5p4p0-2-2-2--2-2-(2)-/5-4-5-|
A-2-2-2--2-2-(2)---------------2-2-2--2-2-(2)--------|
D-2-2-2--2-2-(2)---------------2-2-2--2-2-(2)--------|
  * * *  *       * * *         * * *  *

E----------------------------------------------------------------|
B----------------------------------------------------------------|
G-5-5-5--5-5-(5)-------------------------------------------------|
D-5-5-5--5-5-(5)-5-4-5-7-5-4-5-5-5-5--5-5-5-7-5-4-4-4--4-4h5p4---|
A-3-3-3--3-3-(3)---------------5-5-5--5-5-5-----4-4-4--4-------5-|
D------------------------------5-5-5--5-5-5-----4-4-4--4---------|
  * *    *       * * * * * * * * * *  * * *     * * *  *


Bridge:

E---------------------------------------------------------------------------|
B---------------------------------------------------------------------------|
G---------------------------------------------------------------------------|
D--7-5-4-5-7-5--4h5--7-5-4-5-7-5--4h5--7-5-4-5-7-5--4h5----7---5---4--4h5p4-|
A-------------------3-3-3-3-3-3-33------------------------------------------|
D-2-2-2-2-2-2-22----------------------5-5-5-5-5-5-55----444-444-444-44------|
  * * * * * * **    * * * * * * **    * * * * * * **    *** *** *** **


Verse:

I feel this..
Im not afraid..

Gtr. 1   Play Twice
E--------------------------------------------------------|
B--------------------------------------------------------|
G------------x32!-5-555-5-555-5-555-5/7\5----------------|
D-22222222222-----5-555-5-555-5-555-5/7\5-5-555-5(5)-5-4-|
A-22222222222-----3-333-3-333-3-333-3/5\3-5-555-5(5)-5-4-|
D-22222222222-----------------------------5-555-5(5)-5-4-|
  ***********       ***   ***   ***         ***      *

Gtr. 2
E----------------------------------------------------10----------|
B-55557777888810101010777788881010101012121212-10/12----12-10-12-|
G----------------------------------------------------------------|
D----------------------------------------------------------------|
A----------------------------------------------------------------|
D----------------------------------------------------------------|

Grt. 2
E--------10----------10-12--10-12-10-12-10-|
B--10/12----12-10-12-----------------------|
G------------------------------------------|
D------------------------------------------|
A------------------------------------------|
D------------------------------------------|

Gtr. 2
E----------------------------------------------------10----------|
B-55557777888810101010777788881010101012121212-10/12----12-10-12-|
G----------------------------------------------------------------|
D----------------------------------------------------------------|
A----------------------------------------------------------------|
D----------------------------------------------------------------|

Grt. 2
E--------10----------10-12--10-12-10-12-(12)-|
B--10/12----12-10-12-------------------------|
G--------------------------------------------|
D--------------------------------------------|
A--------------------------------------------|
D--------------------------------------------|


Chorus:

Every time you come around..


Play both twice
E----------------------------------------------------|
B----------------------------------------------------|
G----------------------------------------------------|
D-2-2-2--2-2-(2)-7-5-4-4h5p4p0-2-2-2--2-2-(2)-/5-4-5-|
A-2-2-2--2-2-(2)---------------2-2-2--2-2-(2)--------|
D-2-2-2--2-2-(2)---------------2-2-2--2-2-(2)--------|
  * * *  *       * * *         * * *  *

E----------------------------------------------------------------|
B----------------------------------------------------------------|
G-5-5-5--5-5-(5)-------------------------------------------------|
D-5-5-5--5-5-(5)-5-4-5-7-5-4-5-5-5-5--5-5-5-7-5-4-4-4--4-4h5p4---|
A-3-3-3--3-3-(3)---------------5-5-5--5-5-5-----4-4-4--4-------5-|
D------------------------------5-5-5--5-5-5-----4-4-4--4---------|
  * *    *       * * * * * * * * * *  * * *     * * *  *

Solo:

E-------------------------5h7p5-----------------------------------|
B-7h8p7---7h8-10-10/12-10-------8-8h10p8-7-7h8p7------------------|
G-------9----------------------------------------9-11-12-12/14-12-|
D-----------------------------------------------------------------|
A-----------------------------------------------------------------|
D-----------------------------------------------------------------|

                                      T         T      T       T
E------------------------------------------------------7p3p0h3h7p3p0h3-|
B-------------------7h8p7---7h8p7-5/7-12p8p5h8h12p8p5h8----------------|
G-------7-9-7-9p7h9-------9--------------------------------------------|
D-9-7-9----------------------------------------------------------------|
A----------------------------------------------------------------------|
D----------------------------------------------------------------------|

  T        T        T        T          T          T
E-------------------------------------|-----8 Times---|
B-10p8p5h8h10p8p5h8h10p8p5h8h10p8p5h8-|---------------|
G-------------------------------------|-14p11p9h11h14-|
D-------------------------------------|---------------|
A-------------------------------------|---------------|
D-------------------------------------|---------------|


  T      T      T      T      T      T      T      T      T
E------------------------------------------------------------
B-12p5h8h12p5h8h12p5h8h12p5h8h12p5h8h12p5h8h12p5h8h12p5h8h12-
G------------------------------------------------------------|
D------------------------------------------------------------|
A------------------------------------------------------------|
D------------------------------------------------------------|


E----------------------------10-12p10h12-----------------------------------|
B-(12)p8h10-(10)-10-10/12-12-------------10h12p10-8-7------------787-------|
G-----------------------------------------------------9----797979----9-7-9-|
D-------------------------------------------------------979----------------|
A--------------------------------------------------------------------------|
D--------------------------------------------------------------------------|

One Two Three Four

Chorus:

Every time you come around..


Play both twice
E----------------------------------------------------|
B----------------------------------------------------|
G----------------------------------------------------|
D-2-2-2--2-2-(2)-7-5-4-4h5p4p0-2-2-2--2-2-(2)-/5-4-5-|
A-2-2-2--2-2-(2)---------------2-2-2--2-2-(2)--------|
D-2-2-2--2-2-(2)---------------2-2-2--2-2-(2)--------|
  * * *  *       * * *         * * *  *

E----------------------------------------------------------------|
B----------------------------------------------------------------|
G-5-5-5--5-5-(5)-------------------------------------------------|
D-5-5-5--5-5-(5)-5-4-5-7-5-4-5-5-5-5--5-5-5-7-5-4-4-4--4-4h5p4---|
A-3-3-3--3-3-(3)---------------5-5-5--5-5-5-----4-4-4--4-------5-|
D------------------------------5-5-5--5-5-5-----4-4-4--4---------|
  * *    *       * * * * * * * * * *  * * *     * * *  *

Bridge:

E---------------------------------------------------------------------------|
B---------------------------------------------------------------------------|
G---------------------------------------------------------------------------|
D--7-5-4-5-7-5--4h5--7-5-4-5-7-5--4h5--7-5-4-5-7-5--4h5----7---5---4--4h5p4-|
A-------------------3-3-3-3-3-3-33------------------------------------------|
D-2-2-2-2-2-2-22----------------------5-5-5-5-5-5-55----444-444-444-44------|
  * * * * * * **    * * * * * * **    * * * * * * **    *** *** *** **

Reggae solo:

  N.H.
E-(12)----------------------------------------------10-12--10-12-|
B------12-(12)-7-7h8-7---7-7h8-------------10-10/12--------------|
G----------------------9-------11h12h14/16-----------------------|
D----------------------------------------------------------------|
A----------------------------------------------------------------|
D----------------------------------------------------------------|

                                   N.H.
E-10-12-10-12-10-------------------(12)-----------------------------------|
B----------------12-(12)-10-10h12-------10--12-8--7h8-7-8-7---7-7h8-7-7h8-|
G-----------------------------------------------------------9-------------|
D-------------------------------------------------------------------------|
A-------------------------------------------------------------------------|
D-------------------------------------------------------------------------|

E----------------------10-12--10-12-10-12-10---------------|
B----------------10/12-----------------------12-(12)-10-12-|
G-11-12-14-14/16-------------------------------------------|
D----------------------------------------------------------|
A----------------------------------------------------------|
D----------------------------------------------------------|


E--------------------------------------|
B--------------------------------------|
G--------------------------------------|
D----------12-14-12-14-(14)-12-14-(14)-|
A-14-12-14-----------------------------|
D--------------------------------------|
  *

Outie:

Play both twice
E----------------------------------------------------|
B----------------------------------------------------|
G----------------------------------------------------|
D-2-2-2--2-2-(2)-7-5-4-4h5p4p0-2-2-2--2-2-(2)-/5-4-5-|
A-2-2-2--2-2-(2)---------------2-2-2--2-2-(2)--------|
D-2-2-2--2-2-(2)---------------2-2-2--2-2-(2)--------|
  * * *  *       * * *         * * *  *

E----------------------------------------------------------------|
B----------------------------------------------------------------|
G-5-5-5--5-5-(5)-------------------------------------------------|
D-5-5-5--5-5-(5)-5-4-5-7-5-4-5-5-5-5--5-5-5-7-5-4-4-4--4-4h5p4---|
A-3-3-3--3-3-(3)---------------5-5-5--5-5-5-----4-4-4--4-------5-|
D------------------------------5-5-5--5-5-5-----4-4-4--4---------|
  * *    *       * * * * * * * * * *  * * *     * * *  *

SAX SOLO:
ha email us with $5 and we will send you sax tabs :)

The End.

            
            
Suggest correction
Creating personal tab
Creating personal tab
You can edit any tab online and save it as your Personal.

You can edit, replace or remove any tab part or add personal notes – all changes will be seen only by you.

Personal tabs can be accessed anytime from any device, even offline.
Learn more »
Give kudos to tab author, rate the tab!
1 2 3 4 5
comments
print report bad tab
guest
You may want to rate the tab now too:
select rating
Wanna post a correction for this tab? Suggest correction