Oops, an error
Loading. Please wait.

Burn In My Light bass

version 1
version 1

Whole song

Interactive

1,794 views 3 this week
no commentswrite comment
1 2 3 4 5
1 last vote to show rating
add to favorites
×
Save as Personal and add changes to this tab that will be seen only by you. Learn more ›
×
You can save this tab as Personal to edit and correct it or add notes. All changes will be seen only by you. Learn more »
launch autoscroll
font size
0
reset
guitar tuner
edit
Autoscroll
slow
fast
+/-
esc
set tempo
stop
Author
Band:Mercy Drive
Song:Burn In My Light
Album:Mercy Drive

This is fair easy, just the timing is needed to be right and yeah its fair simple
rate and comennt if you wish to, thanks.

Tuning : C,G,C,F

Intro
F----------------------------------------|
C----------------------------------------|
G----------------------------------------|
C-0000-0000-0000-0000-0000-0000-0000-0000|

Intro 2

F--------------|---------|--------------|-------------|
C--------------|---------|--------------|-------------|
G-----5-3------|-----5--3|-----5-3------|-----5-------| 
C-0-3-----5-0-0|-0-3-----|-0-3-----5-0-0|-0-3----0-3-5|

Chorus 1

F-----------|-------|-----------|-----------|-------|
C-----------|-------|-----------|-----------|-------|
G-----------|-------|-------3---|-----------|-------|
C-0--0--0--0|8-8---8|3--3-3----5|0--0--0---0|8-8---8|

Intermission

F----------------|-----------------|----------------|
C----------------|-----------------|----------------|
G--------3----5--|-----------------|----------------|
C-3--3-3---5----3|--1-1-1-1-1-1-1-1|-1-1-1-1-1-1-1-1|

Chorus 2

F----------|---------------|-------------|------------|
C----------|---------------|-------------|------------|
G----------|---------------|-------0-3---|------------|
C-0--0--0-3|8--8--8-8-8-10-|3--3-3----5--|0--0--0--0-3|

F---------------|-------------|
C---------------|-------------|
G---------------|-------0-3---|
C-8--8--8-8-8-10|3--3-3----5--|

Verse 1

F-----------|------------|--------------|--------------|
C-----------|------------|--------------|--------------|
G-----------|------------|--------------|--------------|
C-5--5--5--5|3-3--3-3-3-3|0-0-0----0-0-0|0-0-0----0-0-0|

F-----------|------------|---------------------|-----------------------|
C-----------|------------|---------------------|-----------------------|
G-----------|------------|---------------------|-----------------------|
C-5--5--5--5|3-3--3-3-3-3|10--10-10-10-10-10-10|10-10-10-10-10-10-10-10|

Chorus 3

F-------------|--------------|------------|------------|
C-------------|--------------|------------|------------|
G-------------|--------------|-------0-3--|------------|
C-0--0--0--0-3|8--8--8-8-8-10|3--3-3-----5|0--0--0--0-3|

F---------------|------------|------------|--------------|
C---------------|------------|------------|--------------|
G---------------|-------0-3--|------------|--------------|
C-8--8--8-8-8-10|3--3-3-----5|0--0--0--0-3|8--8--8-8-8-10|

F-----------------------|-----------------------|
C-----------------------|-----------------------|
G-----------------------|-----------------------|
C-3--3--3--3--3--3--3--3|-3--3--3--3--3--3--3--3|

F---------------|---------|---------------|------------|
C---------------|---------|---------------|------------|
G-----5--3------|-----5--3|-----5--3------|-----5------|
C-0-3------5-0-0|0--3-----|-0-3------5-0-0|-0-3---0-3-5|

Bridge 1

F---------------|---------|---------------|----------|
C---------------|---------|---------------|----------|
G-----5--3------|-----5--3|-----5--3------|-----5----|
C-0-3------5-0-0|0--3-----|-0-3------5-0-0|-0-3---3-5|

F---------------|---------|---------------|----------|
C---------------|---------|---------------|----------|
G-----5--3------|-----5--3|-----5--3------|-----5----|
C-0-3------5-0-0|0--3-----|-0-3------5-0-0|-0-3---3-5|

Verse 2

F-----------|------------|--------------|--------------|
C-----------|------------|--------------|--------------|
G-----------|------------|--------------|--------------|
C-5--5--5--5|3-3--3-3-3-3|0-0-0----0-0-0|0-0-0----0-0-0|

F-----------|------------|---------------------|-----------------------|
C-----------|------------|---------------------|-----------------------|
G-----------|------------|---------------------|-----------------------|
C-5--5--5--5|3-3--3-3-3-3|10--10-10-10-10-10-10|10-10-10-10-10-10-10-10|

Chorus 4

F-------------|--------------|------------|-------------|
C-------------|--------------|------------|-------------|
G-------------|--------------|-------0-3--|-------------|
C-0--0--0--0-3|8--8--8-8-8-10|3--3-3-----5|-0--0--0--0-3|

F---------------|------------|------------|--------------|
C---------------|------------|------------|--------------|
G---------------|-------0-3--|------------|--------------|
C-8--8--8-8-8-10|3--3-3-----5|0--0--0--0-3|8--8--8-8-8-10|

F-------------|------------|--------------|------------|
C-------------|------------|--------------|------------|
G--------0-3--|------------|--------------|-------0-3--|
C-3--3-3-----5|0--0--0--0-3|8--8--8-8-8-10|3--3-3-----5|

F-------------|--------------|------------|-------------|
C-------------|--------------|------------|-------------|
G-------------|--------------|-------0-3--|-------------|
C-0--0--0--0-3|8--8--8-8-8-10|3--3-3-----5|-0--0--0--0-3|

F---------------|-------------|----------|
C---------------|-------------|----------|
G---------------|-------------|----------|
C-8--8--8-8-8-10|3--3--3-3-3-3|3-5-5-5--5|

Bridge 2

F----------|---------|----------|---------|
C----------|---------|----------|---------|
G----------|---------|----------|---------|
C-0--------|3--------|10--------|8--------|

F----------------|
C----------------|
G----------------|
C-0-1-1-1-1-1-1-1|

Interlude

F-------------|--------------|------------|---------------|
C-------------|--------------|------------|---------------|
G-------------|--------------|-------0-3--|-----5--3------|
C-0--0--0--0-3|8--8--8-8-8-10|3--3-3-----5|0--3------5-0-0|

F----------|---------------|-----------|
C----------|---------------|-----------|
G-----5--3-|-----5--3------|----5------|
C-0-3------|0--3------5-0-0|0-3---0-3-5|

Verse 3

F-----------|------------|--------------|--------------|
C-----------|------------|--------------|--------------|
G-----------|------------|--------------|--------------|
C-5--5--5--5|3-3--3-3-3-3|0-0-0----0-0-0|0-0-0----0-0-0|

F-----------|------------|---------------------|-----------------------|
C-----------|------------|---------------------|-----------------------|
G-----------|------------|---------------------|-----------------------|
C-5--5--5--5|3-3--3-3-3-3|10--10-10-10-10-10-10|10-10-10-10-10-10-10-10|

Chorus 5

F-------------|--------------|------------|-------------|
C-------------|--------------|------------|-------------|
G-------------|--------------|-------0-3--|-------------|
C-0--0--0--0-3|8--8--8-8-8-10|3--3-3-----5|-0--0--0--0-3|

F---------------|----------------------|----------------------|
C---------------|----------------------|----------------------|
G---------------|----------------------|----------------------|
C-8--8--8-8-8-10|3--3--3--3--3--3--3--3|3--3--3--3--3--3--3--3|

Outro

F----------------|---------|---------------|------------|
C----------------|---------|---------------|------------|
G------5--3------|-----5--3|-----5--3------|-----5------|
C-0--3------5-0-0|-0-3-----|0--3------5-0-0|-0-3---0-3-5|

Thats it, I know its long, but it's all right and sounds good when played correct.

Thanks, Juzzy


            
            
Suggest correction
Creating personal tab
Creating personal tab
You can edit any tab online and save it as your Personal.

You can edit, replace or remove any tab part or add personal notes – all changes will be seen only by you.

Personal tabs can be accessed anytime from any device, even offline.
Learn more »
Give kudos to tab author, rate the tab!
1 2 3 4 5
comments
print report bad tab
guest
You may want to rate the tab now too:
select rating
Wanna post a correction for this tab? Suggest correction