Oops, an error
Loading. Please wait.

Flawless chords

version 3
version 3

Whole song

  • This version is different because it includes all ... Show more
by MercyMe
1,136 views 6 this week
2 commentsread comments
1 2 3 4 5
x 3
add to favorites
×
Save as Personal and add changes to this tab that will be seen only by you. Learn more ›
×
You can save this tab as Personal to edit and correct it or add notes. All changes will be seen only by you. Learn more »
launch autoscroll
font size
0
reset
transpose
0
reset
display chords
guitar tuner
edit
Autoscroll
slow
fast
+/-
esc
set tempo
stop
Author
Difficulty
About this tab version
This version is different because it includes all of the lyrics and chords, the chords are more precise, and it includes the lead tabs. Was this info helpful? Yes No
Strumming
There is no strumming pattern for this song yet. and get +5 IQ
Flawless
Mercyme
Welcome to the New - 2014
Tabbed by: Me

Tuning: E,A,D,G,B,e

Intro: A, (A riff for lead)

  
These are the riffs that the lead guitar can play during the verses:
  A riff:
e|---------------------------------------------------------------|
B|-----2-----2------2------2-------------------------------------|
G|--2----2-2-----2----2-2----------------------------------------|
D|---------------------------------------------------------------|
A|---------------------------------------------------------------|
E|---------------------------------------------------------------|
  E riff:
e|---------------------------------------------------------------|
B|---------------------------------------------------------------|
G|-----1-----1------1------1-------------------------------------|
D|--2----2-2-----2----2-2----------------------------------------|
A|---------------------------------------------------------------|
E|---------------------------------------------------------------|
  D riff:
e|---------------------------------------------------------------|
B|-----3-----3------3------3-------------------------------------|
G|--2----2-2-----2----2-2----------------------------------------|
D|---------------------------------------------------------------|
A|---------------------------------------------------------------|
E|---------------------------------------------------------------|

 A riff:
e|---------------------------------------------------------------|
B|-----2-----2------2------2-------------------------------------|
G|--2----2-2-----2----2-2----------------------------------------|
D|---------------------------------------------------------------|
A|---------------------------------------------------------------|
E|---------------------------------------------------------------|


Verse 1:
                        A
There’s got to be more 
           A
Than going back and forth 
           E
From doing right to doing wrong 
               E
‘Cause we were taught that’s who we are 
        D
Come on get in line right behind me 
D                         A
You along with everybody 
                                  A
Thinking there’s worth in what you do 

Hook:
A                                    
 Then Like a hero who takes the stage when 
E                                                  D
We’re on the edge of our seats saying it’s too late 
     D                        A 
Well let me introduce you to amazing grace 

Chorus:
   A
No matter the bumps 
   A
No matter the bruises 
   E
No matter the scars 
E
Still the truth is 
        D
The cross has made 
        D                  A 
The cross has made you flawless 
   A
No matter the hurt 
   A
Or how deep the wound is 
   E
No matter the pain 
E
Still the truth is 
        D
The cross has made 
        D                  A 
The cross has made you flawless 

Verse 2:
                      A
Could it possibly be 
               A
That we simply can’t believe 
          E
That this unconditional 
        E
Kind of love would be enough 
  D      
To take a filthy wretch like this 
D   
 And wrap him up in righteousness 
A
 But that’s exactly what He did 

Chorus:
  A
No matter the bumps 
   A
No matter the bruises 
   E
No matter the scars 
E
Still the truth is 
        D
The cross has made 
        D                  A 
The cross has made you flawless 
   A
No matter the hurt 
   A
Or how deep the wound is 
   E
No matter the pain 
E
Still the truth is 
        D
The cross has made 
        D                  A 
The cross has made you flawless 

Bridge:
       G   
Oh yeah ooooh ooh ooh
D
Ooooh ooh ooh
A
 Take a breath smile and say 
      A 
Right here right now I’m ok 
   G                        D          A
Because (ooooh ooh ooh) the cross was enough 

Hook:
A                                    
 Then Like a hero who takes the stage when 
E                                                  D
We’re on the edge of our seats saying it’s too late 
     D                       A 
Well let me introduce you to grace grace 
D           A
God’s grace 

Chorus:

A
No matter the bumps 
   A
No matter the bruises 
   E
No matter the scars 
E
Still the truth is 
        D
The cross has made 
        D                  A 
The cross has made you flawless 
   A
No matter the hurt 
   A
Or how deep the wound is 
   E
No matter the pain 
E
Still the truth is 
        D
The cross has made 
        D                  A 
The cross has made you flawless 

Chorus II:
A
 No matter what they say 
A                      E
 Or what you think you are 
                       E
The day you called His name 
            D
He made you flawless
D           A
 He made you flawless

Chorus:

A
No matter the bumps 
   A
No matter the bruises 
   E
No matter the scars 
E
Still the truth is 
        D
The cross has made 
        D                  A 
The cross has made you flawless

            
            
Suggest correction
Creating personal tab
Creating personal tab
You can edit any tab online and save it as your Personal.

You can edit, replace or remove any tab part or add personal notes – all changes will be seen only by you.

Personal tabs can be accessed anytime from any device, even offline.
Learn more »
Give kudos to tab author, rate the tab!
1 2 3 4 5
comments
print report bad tab
2 comments total.
0 reply
pdog116 10 Sep 17, 2017 11:35 PM

I like the lead parts you have here!

0 reply
kskinner 23 Oct 04, 2017 05:38 PM

Thanks! Nice to hear something good on the first tab!

guest
You may want to rate the tab now too:
select rating
Wanna post a correction for this tab? Suggest correction