Oops, an error
Loading. Please wait.

No Show Jones bass

55 views 1 this week
no commentswrite comment
1 2 3 4 5
3 more votes to show rating
add to favorites
×
Save as Personal and add changes to this tab that will be seen only by you. Learn more ›
×
You can save this tab as Personal to edit and correct it or add notes. All changes will be seen only by you. Learn more »
launch autoscroll
font size
0
reset
guitar tuner
edit
Autoscroll
slow
fast
+/-
esc
set tempo
stop
Author
Difficulty
Tabbed by: 6METAL6BASSIST6
E-mail: petergriffinav@gmail.com

Tuning: EADG

G|------------------------------------------------------------------------------------------------|
D|1-----------1-----------3-----------3-----------------------3-----------------------------------|
A|------------------------------------------------1-----------------------1-----------------0-----|
E|------------------------------------------------------------------------------1-----3-----------|

0:09

G|------------------------------------------------------------------------------------------------|
D|------------3-----------1-----------1-----------------------3-----------------------------------|
A|1-----------------------------------------------1-----------------------1-----------0-----------|
E|------------------------------------------------------------------------------------------3-----|

G|------------------------------------------------------------------------------------------------|
D|------------------------------------------------------------3-----------------------------------|
A|------------3-----------------------------------1-----------------------1-----------------0-----|
E|1-----------------------1-----------1-----------------------------------------1-----3-----------|

0:23

G|------------------------------------------------------------------------------------------------|
D|------------3-----------1-----------1-----------------------3-----------------------------------|
A|1-----------------------------------------------1-----------------------1-----------1-----------|
E|------------------------------------------------------------------------------------------------|

G|------------------------------------------------------------------------------------------------|
D|------------5-----------------------5-----------3-----------0-----------------------------------|
A|3-----------------------3---------------------------------------3-0-----------------------------|
E|----------------------------------------------------------------------3-1-----------------------|

0:36

G|------------------------------------------------------------------------------------------------|
D|1-----------------------1-----------1-----------------------3-----------------------------0-----|
A|------------1-----------------------------------1-----------------------1-----1-----3-----------|
E|------------------------------------------------------------------------------------------------|

G|------------------------------------------------------------------------------------------------|
D|1-----------1-----------3-----------3-----------------------3-----------------------------0-----|
A|------------------------------------------------1-----------------------1-----1-----3-----------|
E|------------------------------------------------------------------------------------------------|

G|------------------------------------------------------------------------------------------------|
D|1-----------1-----------3-----------3-----------------------3-----------------------------------|
A|------------------------------------------------1-----------------------1-----------------0-----|
E|------------------------------------------------------------------------------1-----3-----------|

0:57

G|------------------------------------------------------------------------------------------------|
D|------------3-----------1-----------1-----------------------3-----------------------------------|
A|1-----------------------------------------------1-----------------------1-----------0-----------|
E|------------------------------------------------------------------------------------------3-----|

G|------------------------------------------------------------------------------------------------|
D|------------------------------------------------------------3-----------------------------------|
A|------------3-----------------------------------1-----------------------1-----------------0-----|
E|1-----------------------1-----------1-----------------------------------------1-----3-----------|

1:11

G|------------------------------------------------------------------------------------------------|
D|------------3-----------1-----------1-----------------------3-----------------------------------|
A|1-----------------------------------------------1-----------------------1-----------1-----------|
E|------------------------------------------------------------------------------------------------|

G|------------------------------------------------------------------------------------------------|
D|------------5-----------------------5-----------3---------3-0-----------------------------------|
A|3-----------------------3---------------------------------------3-0-----------------------------|
E|----------------------------------------------------------------------3-1-----------------------|

1:24

G|------------------------------------------------------------------------------------------------|
D|1-----------------------1-----------1-----------------------3-----------------------------0-----|
A|------------1-----------------------------------1-----------------------1-----1-----3-----------|
E|------------------------------------------------------------------------------------------------|

G|------------------------------------------------------------------------------------------------|
D|1-----------1-----------3-----------3-----------------------3-----------------------------0-----|
A|------------------------------------------------1-----------------------1-----1-----3-----------|
E|------------------------------------------------------------------------------------------------|

1:38

G|------------------------------------------------------------------------------------------------|
D|1-----------------------1-----------1-----------------------3-----------------------------0-----|
A|------------1-----------------------------------1-----------------------1-----1-----3-----------|
E|------------------------------------------------------------------------------------------------|

G|------------------------------------------------------------------------3-----------------------|
D|1-----------1-----------3-----------3-----------------------3-----------------------------0-----|
A|------------------------------------------------1-----------------------------1-----3-----------|
E|------------------------------------------------------------------------------------------------|

1:52

G|------------------------------------------------------------------------------------------------|
D|1-----------------------1-----------1-----------------------3-----------------------------0-----|
A|------------1-----------------------------0-----1-----------------------1---------1-3-----------|
E|------------------------------------------------------------------------------------------------|

G|------------------------------------------------------------------------------------------------|
D|1-----------1-----------3-----------------------------------3-----------------------------0-----|
A|------------------------------------------------1-----------------------1-----1-----3-----------|
E|------------------------------------1-----------------------------------------------------------|

2:05

G|------------------------------------------------------------------------------------------------|
D|1-----------------------1---------1-0-----------------------3-----------------------------0-----|
A|------------1-----------------------------3-----1-----------------------1---------1-3-----------|
E|------------------------------------------------------------------------------------------------|

G|----------------------------------------------------------------------3-----3-------------------|
D|1-----------1-----0-0-1-3-----------------------------------0---3-5-----------6-----5-----3-----|
A|------------------------------------------------1---------1-------------------------------------|
E|------------------------------------1-----------------------------------------------------------|
                                                                                             fades out here.
G|------------------------------------------------------------------------------------------------------|
D|1-----------------------1-----------1-----------------------3-----------------------------0-----1-----|
A|------------1-----------------------------------1-----------------------1---------1-3-----------------|
E|------------------------------------------------------------------------------------------------------|

            
            
Suggest correction
Creating personal tab
Creating personal tab
You can edit any tab online and save it as your Personal.

You can edit, replace or remove any tab part or add personal notes – all changes will be seen only by you.

Personal tabs can be accessed anytime from any device, even offline.
Learn more »
Give kudos to tab author, rate the tab!
1 2 3 4 5
comments
print report bad tab
guest
You may want to rate the tab now too:
select rating
Wanna post a correction for this tab? Suggest correction