Oops, an error
Loading. Please wait.

God Shiva bass

686 views 1 this week
no commentswrite comment
1 2 3 4 5
3 more votes to show rating
add to favorites
×
Save as Personal and add changes to this tab that will be seen only by you. Learn more ›
×
You can save this tab as Personal to edit and correct it or add notes. All changes will be seen only by you. Learn more »
launch autoscroll
font size
0
reset
guitar tuner
edit
Autoscroll
slow
fast
+/-
esc
set tempo
stop
Author
Difficulty
 hey i'm myke [a.k.a basemann] um this the bassline to the song 'god shiva'from the cd 
Beyond Passion' so enjoy. If your a bass player no matter what music u like u can 
her bass playing so enojoy

  [Main riff]                [Veriiation]
  g]-----------------|     ]-------------------|
  d]-----------------|     ]-------------------|
  a]---------5-------|     ]-------5-----------|
  e]--0-0-/7---5-3-0-|     ]--0-/7----5--3--0--|

   [change]
  g]--------------------------------|
  d]--------------------------------|
  a]------77--55--44----------------|
  e]--0-0----------77--55--3-5-7-5-3|

   easy but good to just jam on

            
            
Suggest correction
Creating personal tab
Creating personal tab
You can edit any tab online and save it as your Personal.

You can edit, replace or remove any tab part or add personal notes – all changes will be seen only by you.

Personal tabs can be accessed anytime from any device, even offline.
Learn more »
Give kudos to tab author, rate the tab!
1 2 3 4 5
comments
print report bad tab
guest
You may want to rate the tab now too:
select rating
Wanna post a correction for this tab? Suggest correction