Oops, an error
Loading. Please wait.

Sublevels tab

2,111 views 1 this week
no commentswrite comment
1 2 3 4 5
3 more votes to show rating
add to favorites
×
Save as Personal and add changes to this tab that will be seen only by you. Learn more ›
×
You can save this tab as Personal to edit and correct it or add notes. All changes will be seen only by you. Learn more »
launch autoscroll
font size
0
reset
how to read this tab
guitar tuner
edit
Autoscroll
slow
fast
+/-
esc
set tempo
stop
-----------------------------------------------------------------------------------------------
Artist - Meshuggah
Song   - Sublevels
Album  - Destroy Erase Improve
Tabbed - Jakob Jugovic
Mail   - jakobjugovic@gmail.com
-----------------------------------------------------------------------------------------------


p - pull
h - hammer on
/ - slide upwards
\ - slide downwards
X - ghost note
~ - vibrato
o - 1/4 (timescale)
^ - bend
pm- palm mute




  INTRO:

    o . . . o . . . o . . . o . . . o . . .
D#|-----------------------------------------|
A#|-----------------------------------------|
F#|-----------------------------------------|  x2 (10 is not 1,0)
C#|-0-7-9-11--1010--------10--1010--1010----|
G#|-0-7-9-11--1010--------10--1010--1010----|
C#|-0-7-9-11--1010--------10--1010--1010----|
pm  . . . .   . .         .   . .   . .


  'INTRO':


  [MAIN RIFF]

    o . . . o . . . o . . . o . . . o . . .
D#|-----------------------------------------|
A#|-----------------------------------------|
F#|-----------------------------------------|  x4 (10 is not 1,0)
C#|-0-7-9-11--1010--------10--1010--1010----|
G#|-0-7-9-11--1010--------10--1010--1010----|
C#|-0-7-9-11--1010--------10--1010--1010----|
pm  . . . .   . .         .   . .   . .


   [SOLO GUITAR]

    o . . . o . . . o . . . o . . . o . . .
D#|-11------------------------------14------|
A#|----------------------------13-------13--|
F#|-----------------------------------------|
C#|-----------------------------------------|
G#|-----------------------------------------|
C#|-----------------------------------------|


    o . . . o . . . o . . . o . . . o . . .
D#|-10------------------------------101113--|  (10,11,13)
A#|-------------------------------13--------|
F#|-----------------------------------------|
C#|-----------------------------------------|
G#|-----------------------------------------|
C#|-----------------------------------------|


    o . . . o . . . o . . . o . . . o . . .
D#|-14------------------------------17------|
A#|-----------------------------16------16--|
F#|-----------------------------------------|
C#|-----------------------------------------|
G#|-----------------------------------------|
C#|-----------------------------------------|


    o . . . o . . . o . . . o . . . o . . .
D#|-13--------------------------------------|
A#|-----------------------------------------|
F#|-----------------------------------------|
C#|-----------------------------------------|
G#|-----------------------------------------|
C#|-----------------------------------------|


  VERSE:


  [MAIN RIFF]

    o . . . o . . . o . . . o . . . o . . .
D#|-----------------------------------------|
A#|-----------------------------------------|
F#|-----------------------------------------|  x4
C#|-0-9-6-3---0-0---------0---0-0---0-0-----|
G#|-0-9-6-3---0-0---------0---0-0---0-0-----|
C#|-0-9-6-3---0-0---------0---0-0---0-0-----|
pm  . . . .   . .         .   . .   . .


    o . . . o . . . o . . . o . . .
D#|---------------------------------|
A#|---------------------------------|
F#|---------------------------------|  x3
C#|-0-9-6-3---0-0---------0---0-0---|
G#|-0-9-6-3---0-0---------0---0-0---|
C#|-0-9-6-3---0-0---------0---0-0---|
pm  . . . .   . .         .   . .


    o . . . o . . . o . . . o . . . o . . .
D#|-----------------------------------------|
A#|-----------------------------------------|
F#|-----------------------------------------|
C#|-0-9-6-3---0-0---------0---0-0---0-0-----|
G#|-0-9-6-3---0-0---------0---0-0---0-0-----|
C#|-0-9-6-3---0-0---------0---0-0---0-0-----|
pm  . . . .   . .         .   . .   . .


  [CLEAN CHORDS]

    o . . . o . . . o . . . o . . . o . . .
D#|-15--------------------------------------|
A#|-12--------------------------------------|
F#|-----------------------------------------|
C#|-----------------------------------------|
G#|-----------------------------------------|
C#|-----------------------------------------|


    o . . . o . . . o . . . o . . . o . . .
D#|-10--------------------------------------|
A#|-9---------------------------------------|
F#|-----------------------------------------|
C#|-----------------------------------------|
G#|-----------------------------------------|
C#|-----------------------------------------|


    o . . . o . . . o . . . o . . . o . . .
D#|-9---------------------------------------|
A#|-----------------------------------------|
F#|-7---------------------------------------|
C#|-----------------------------------------|
G#|-----------------------------------------|
C#|-----------------------------------------|


    o . . . o . . . o . . . o . . . o . . .
D#|-10--------------------------------------|
A#|-9---------------------------------------|
F#|-----------------------------------------|
C#|-----------------------------------------|
G#|-----------------------------------------|
C#|-----------------------------------------|


    o . . . o . . . o . . . o . . .
D#|-19------------------------------|
A#|-18------------------------------|
F#|---------------------------------|
C#|---------------------------------|
G#|---------------------------------|
C#|---------------------------------|


    o . . . o . . . o . . . o . . .
D#|-16------------------------------|
A#|-15------------------------------|
F#|---------------------------------|
C#|---------------------------------|
G#|---------------------------------|
C#|---------------------------------|


    o . . . o . . . o . . . o . . .
D#|-12------------------------------|
A#|-9-------------------------------|
F#|---------------------------------|
C#|---------------------------------|
G#|---------------------------------|
C#|---------------------------------|


    o . . . o . . . o . . . o . . .
D#|-7-------------------------------|
A#|-6-------------------------------|
F#|---------------------------------|
C#|---------------------------------|
G#|---------------------------------|
C#|---------------------------------|


  INTRO:

    o . . . o . . . o . . . o . . . o . . .
D#|-----------------------------------------|
A#|-----------------------------------------|
F#|-----------------------------------------|  x2 (10 is not 1,0)
C#|-0-7-9-11--1010--------10--1010--1010----|
G#|-0-7-9-11--1010--------10--1010--1010----|
C#|-0-7-9-11--1010--------10--1010--1010----|
pm  . . . .   . .         .   . .   . .


  'INTRO':


  [MAIN RIFF]

    o . . . o . . . o . . . o . . . o . . .
D#|-----------------------------------------|
A#|-----------------------------------------|
F#|-----------------------------------------|  x4 (10 is not 1,0)
C#|-0-7-9-11--1010--------10--1010--1010----|
G#|-0-7-9-11--1010--------10--1010--1010----|
C#|-0-7-9-11--1010--------10--1010--1010----|
pm  . . . .   . .         .   . .   . .


   [SOLO GUITAR]

    o . . . o . . . o . . . o . . . o . . .
D#|-11------------------------------14------|
A#|----------------------------13-------13--|
F#|-----------------------------------------|
C#|-----------------------------------------|
G#|-----------------------------------------|
C#|-----------------------------------------|


    o . . . o . . . o . . . o . . . o . . .
D#|-10------------------------------101113--|  (10,11,13)
A#|-------------------------------13--------|
F#|-----------------------------------------|
C#|-----------------------------------------|
G#|-----------------------------------------|
C#|-----------------------------------------|


    o . . . o . . . o . . . o . . . o . . .
D#|-14------------------------------17------|
A#|-----------------------------16------16--|
F#|-----------------------------------------|
C#|-----------------------------------------|
G#|-----------------------------------------|
C#|-----------------------------------------|


    o . . . o . . . o . . . o . . . o . . .
D#|-13--------------------------------------|
A#|-----------------------------------------|
F#|-----------------------------------------|
C#|-----------------------------------------|
G#|-----------------------------------------|
C#|-----------------------------------------|


  VERSE:


  [GUITAR 1 - distorted]

    o . . . o . . . o . . . o . . . o . . .
D#|-----------------------------------------|
A#|-----------------------------------------|
F#|-----------------------------------------|  x4
C#|-0-9-6-3---0-0---------0---0-0---0-0-----|
G#|-0-9-6-3---0-0---------0---0-0---0-0-----|
C#|-0-9-6-3---0-0---------0---0-0---0-0-----|
pm  . . . .   . .         .   . .   . .


    o . . . o . . . o . . . o . . .
D#|---------------------------------|
A#|---------------------------------|
F#|---------------------------------|  x4
C#|-0-9-6-3---0-0---------0---0-0---|
G#|-0-9-6-3---0-0---------0---0-0---|
C#|-0-9-6-3---0-0---------0---0-0---|
pm  . . . .   . .         .   . .


    o . . . o . . . o . . . o . . . o . . .
D#|-----------------------------------------|
A#|-----------------------------------------|
F#|-----------------------------------------|  x4
C#|-0-9-6-3---0-0---------0---0-0---0-0-----|
G#|-0-9-6-3---0-0---------0---0-0---0-0-----|
C#|-0-9-6-3---0-0---------0---0-0---0-0-----|
pm  . . . .   . .         .   . .   . .


  [GUITAR 2 - clean chords]

    o . . . o . . . o . . . o . . . o . . .
D#|-15--------------------------------------|
A#|-12--------------------------------------|
F#|-----------------------------------------|
C#|-----------------------------------------|
G#|-----------------------------------------|
C#|-----------------------------------------|


    o . . . o . . . o . . . o . . . o . . .
D#|-10--------------------------------------|
A#|-9---------------------------------------|
F#|-----------------------------------------|
C#|-----------------------------------------|
G#|-----------------------------------------|
C#|-----------------------------------------|


    o . . . o . . . o . . . o . . . o . . .
D#|-9---------------------------------------|
A#|-----------------------------------------|
F#|-7---------------------------------------|
C#|-----------------------------------------|
G#|-----------------------------------------|
C#|-----------------------------------------|


    o . . . o . . . o . . . o . . . o . . .
D#|-10--------------------------------------|
A#|-9---------------------------------------|
F#|-----------------------------------------|
C#|-----------------------------------------|
G#|-----------------------------------------|
C#|-----------------------------------------|


    o . . . o . . . o . . . o . . .
D#|-19------------------------------|
A#|-18------------------------------|
F#|---------------------------------|
C#|---------------------------------|
G#|---------------------------------|
C#|---------------------------------|


    o . . . o . . . o . . . o . . .
D#|-16------------------------------|
A#|-15------------------------------|
F#|---------------------------------|
C#|---------------------------------|
G#|---------------------------------|
C#|---------------------------------|


    o . . . o . . . o . . . o . . .
D#|-12------------------------------|
A#|-9-------------------------------|
F#|---------------------------------|
C#|---------------------------------|
G#|---------------------------------|
C#|---------------------------------|


    o . . . o . . . o . . . o . . .
D#|-7-------------------------------|
A#|-6-------------------------------|
F#|---------------------------------|
C#|---------------------------------|
G#|---------------------------------|
C#|---------------------------------|


  HEAVY PART 1 [both guitars]:

    o . . . o . . .
D#|-----------------|
A#|-----------------|
F#|-----------------|  x7
C#|-----------------|
G#|-5p2-0-1-2p1-2/3-|
C#|-5p2-0-1-2p1-2/3-|
pm      . . 


    o . . . o . . .
D#|-----------------|
A#|-----------------|
F#|-----------------|  x8
C#|-----------------|
G#|-5p2-0-1-2-1-2-3-|
C#|-5p2-0-1-2-1-2-3-|
pm      . . . . . .


    o . . . o . . .
D#|-----------------|
A#|-----------------|
F#|-----------------|
C#|-----------------|
G#|-5p2-0-1-2-1-3---|
C#|-5p2-0-1-2-1-3---|
pm      . . . . .


  MID PART:

  [GUITAR 1 - clean]

    o . . . o . . . o . . . o . . .
D#|---------------------------------|
A#|-------0-----------0-----------0-|
F#|-----0---0-------0---0-------0---|
C#|---11------11--11------11--11----|
G#|-10----------10----------10------|
C#|---------------------------------|


    o . . . o . . . o . . . o . . .
D#|---------------------------------|
A#|-------0-----------0-----------0-|
F#|-----0---0-------0---0-------0---|
C#|---11------11--11------11--11----|
G#|-9-----------9-----------9-------|
C#|---------------------------------|


  [GUITAR 2 - solo]

    o . . . o . . . o . . . o . . . o . . . o . . . o . . . o . . .
D#|/14--------------\\\\\\\\\\\\\-----------------------------------|
A#|--------------------------------/12--------------\\\\\\\\\\\\\---|
F#|-----------------------------------------------------------------|
C#|-----------------------------------------------------------------|
G#|-----------------------------------------------------------------|
C#|-----------------------------------------------------------------|


    o . . . o . . . o . . . o . . . o . . . o . . . o . . . o . . .
D#|-----------------------------------------------------------------|
A#|-----------------------------------------------------------------|
F#|/11--------------\\\\\\\\\\\\\-----------------------------------|
C#|-----------------------------------------------------------------|
G#|--------------------------------/7-------------------------------|
C#|-----------------------------------------------------------------|



    o . . . o . . . o . . . o . . . o . . . o . . . o . . . o . . .
D#|-----------------------------------------------------------------|
A#|-----------------------------------------------------------------|
F#|-----------------------------------------------------------------|
C#|-----------------------------------------------------------------|
G#|-7--/10--8---7-------------------3--/7---5---2-------3-0---------|
C#|-----------------------------------------------------------------|


    o . . . o . . . o . . . o . . . o . . . o . . . o . . . o . . .
D#|-----------------------------------------------------------------|
A#|-----------------------------------------------------------------|
F#|-----------------------------------------------------------------|
C#|-----------------------------7---9---9---------------------------|
G#|(0)------7--/10--8---7---8---------------------------------------|
C#|-----------------------------------------------------------------|


    o . . . o . . . o . . . o . . . o . . . o . . . o . . . o . . .
D#|-----------------------------------------------------------------|
A#|-----------------------------------------------------------------|
F#|-----------------------------------------------------------------|
C#|-9---\-----------9---9---9--/11------9-9-----------------\-------|
G#|-----------------------------------------------------------------|
C#|-----------------------------------------------------------------|


    o . . . o . . . o . . . o . . . o . . . o . . . o . . . o . . .
D#|-----------------------------------------------------------------|
A#|-----------------------------------------------------------------|
F#|/1211-------------------/1211----12--11--9-------------------9-10|
C#|-----11------9-----11--------119---------------------------------|
G#|-----------------------------------------------------------------|
C#|-----------------------------------------------------------------|


    o . . . o . . . o . . . o . . . o . . . o . . . o . . . o . . .
D#|-----------------------------------------------------------------|
A#|---------------------------------------12--13----------------12^^|
F#|-12109-------9-------------------9-1012------12------------------|
C#|-------12--10----------------1012--------------------------------|
G#|-----------------------------------------------------------------|
C#|-----------------------------------------------------------------|


    o . . . o . . . o . . . o . . . o . . . o . . . o . . . o . .
D#|---------------------------------------------------------------|
A#|-1210----15^-13--12^^^---10------------------------------------|
F#|---------------------------------------------------------------|
C#|---------------------------------------------------------------|
G#|----------------------------/7-------5-3-----------------------|
C#|---------------------------------------------------------------|


  HEAVY PART 2a:


  [GUITAR 1]

    o . . . o . . . o . . . o . . . o . . . o . . . o . . . o . . .    _
D#|-----------------------------------------------------------------|   |
A#|-----------------------------------------------------------------|   |
F#|----------7-----------7-----------7-----------7-----------7/---\-|   |
C#|----------6-----------6-----------6-----------6-----------6/---\-|   |
G#|-0--0--0--5--0--0--0--5--0--0--0--5--0--0--0--5--0--0--0--5/---\-|   |
C#|-0--0--0-----0--0--0-----0--0--0-----0--0--0-----0--0--0---------|   |
pm  .  .  .     .  .  .     .  .  .     .  .  .     .  .  .             |
                                                                        |  x2
                                                                        |
    o . . . o . . . o . . . o . . . o . . . o . . . o . . . o . . .     |
D#|-----------------------------------------------------------------|   |
A#|-----------------------------------------------------------------|   |
F#|---------7-----------7-----------7-----------7-----------7-/---\-|   |
C#|---------6-----------6-----------6-----------6-----------6-/---\-|   |
G#|-0--0--0-5---0--0--0-5---0--0--0-5---0--0--0-5---0--0--0-5-/---\-|   |
C#|-0--0--0-----0--0--0-----0--0--0-----0--0--0-----0--0--0---------|  _|
pm  .  .  .     .  .  .     .  .  .     .  .  .     .  .  .

  [GUITAR 2]

    o . . . o . . . o . . . o . . . o . . . o . . . o . . . o . . .    _
D#|-16-16-16-16-16-16-16-16-16-16-16-16-16-16-16-16-16-16-16-16-\\--|   |
A#|-20-20-20-20-20-20-20-20-20-20-20-20-20-20-20-20-20-20-20-20-\\--|   |
F#|-----------------------------------------------------------------|   |
C#|-----------------------------------------------------------------|   |
G#|-----------------------------------------------------------------|   |
C#|-----------------------------------------------------------------|   |
                                                                        |
                                                                        |  x2
    o . . . o . . . o . . . o . . . o . . . o . . . o . . . o . . .     |
D#|-13-13-13-13-13-13-13-13-13-13-13-13-13-13-13-13-13-13-13-13-//--|   |
A#|-17-17-17-17-17-17-17-17-17-17-17-17-17-17-17-17-17-17-17-17-//--|   |
F#|-----------------------------------------------------------------|   |
C#|-----------------------------------------------------------------|   |
G#|-----------------------------------------------------------------|   |
C#|-----------------------------------------------------------------|  _|



  HEAVY PART 2b:


  [GUITAR 1]

    o . . . o . . . o . . . o . . . o . . . o . . . o . . . o . . .    _
D#|-----------------------------------------------------------------|   |
A#|-----------------------------------------------------------------|   |
F#|----------10----------10----------10----------10---------10/---\-|   |
C#|----------9-----------9-----------9-----------9-----------9/---\-|   |
G#|-9--9--9--9--9--9--9--9--9--9--9--9--9--9--9--9--9--9--9--9/---\-|   |
C#|-9--9--9-----9--9--9-----9--9--9-----9--9--9-----9--9--9---------|   |
pm  .  .  .     .  .  .     .  .  .     .  .  .     .  .  .             |
                                                                        |  x2
                                                                        |
    o . . . o . . . o . . . o . . . o . . . o . . . o . . . o . . .     |
D#|-----------------------------------------------------------------|   |
A#|-----------------------------------------------------------------|   |
F#|---------10----------10----------10----------10---------10-/---\-|   |
C#|---------9-----------9-----------9-----------9-----------9-/---\-|   |
G#|-9--9--9-9---9--9--9-9---9--9--9-9---9--9--9-9---9--9--9-9-/---\-|   |
C#|-9--9--9-----9--9--9-----9--9--9-----9--9--9-----9--9--9---------|  _|
pm  .  .  .     .  .  .     .  .  .     .  .  .     .  .  .


  [GUITAR 2]

    o . . . o . . . o . . . o . . . o . . . o . . . o . . . o . . .    _
D#|-14-14-14-14-14-14-14-14-14-14-14-14-14-14-14-14-14-14-14-14-\\--|   |
A#|-18-18-18-18-18-18-18-18-18-18-18-18-18-18-18-18-18-18-18-18-//--|   |
F#|-----------------------------------------------------------------|   |
C#|-----------------------------------------------------------------|   |
G#|-----------------------------------------------------------------|   |
C#|-----------------------------------------------------------------|   |
                                                                        |
                                                                        |  x2
    o . . . o . . . o . . . o . . . o . . . o . . . o . . . o . . .     |
D#|-11-11-11-11-11-11-11-11-11-11-11-11-11-11-11-11-11-11-11-11-//--|   |
A#|-15-15-15-15-15-15-15-15-15-15-15-15-15-15-15-15-15-15-15-15-//--|   |
F#|-----------------------------------------------------------------|   |
C#|-----------------------------------------------------------------|   |
G#|-----------------------------------------------------------------|   |
C#|-----------------------------------------------------------------|  _|


  PRE:

  [GUITAR 1 - distorted]

    o . . . o . . . o . . . o . . . o . . . o . . . o . . . o . . .
D#|-----------------------------------------------------------------|
A#|-----------------------------------------------------------------|
F#|-----------------------------------------------------------------|
C#|-9---------------------------------------------------------------|
G#|-9---------------------------------------------------------------|
C#|-9---------------------------------------------------------------|


    o . . . o . . . o . . . o . . . o . . . o . . . o . . . o . . .
D#|-----------------------------------------------------------------|
A#|-----------------------------------------------------------------|
F#|-----------------------------------------------------------------|
C#|-----------------------------------------------------------------|
G#|-----------------------------------------------------------------|
C#|-----------------------------------------------------------------|


    o . . . o . . . o . . . o . . . o . . . o . . . o . . . o . . .
D#|-----------------------------------------------------------------|
A#|-----------------------------------------------------------------|
F#|-----------------------------------------------------------------|
C#|-9---------------------------------------------------------------|
G#|-9---------------------------------------------------------------|
C#|-9---------------------------------------------------------------|


    o . . . o . . . o . . . o . . . o . . . o . . . o . . . o . . .
D#|-----------------------------------------------------------------|
A#|-----------------------------------------------------------------|
F#|-----------------------------------------------------------------|
C#|-----------------------------------------------------------------|
G#|-----------------------------------------------------------------|
C#|-----------------------------------------------------------------|


  [GUITAR 2 - clean]

    o . . . o . . . o . . . o . . . o . . . o . . . o . . . o . . .
D#|-----------------------------------------------------------------|
A#|-0--------------------------(0)----------------------9------p0---|
F#|-10--------------------------11--------------------------11------|
C#|-----------------------------------------------------------------|
G#|-----------------------------------------------------------------|
C#|-----------------------------------------------------------------|


    o . . . o . . . o . . . o . . . o . . . o . . . o . . . o . . .
D#|-----------------------------------------------------------------|
A#|(0)---------(0)--------------------------------------------------|
F#|-10----------11----------10----------12--------------------------|
C#|-9-----------9-----------12----------x---------------------------|
G#|-------------------------14----------13--------------------------|
C#|-----------------------------------------------------------------|



    o . . . o . . . o . . . o . . . o . . . o . . . o . . . o . . .
D#|-----------------------------------------------------------------|
A#|-0-------------------9-------7-----------------------9------p0---|
F#|-10--------------------------6---------------------------11------|
C#|-----------------------------------------------------------------|
G#|-----------------------------------------------------------------|
C#|-----------------------------------------------------------------|


    o . . . o . . . o . . . o . . . o . . . o . . . o . . . o . . .
D#|-----------------------------------------------------------------|
A#|(0)---------(0)--------------------------------------------------|
F#|-10----------11----------10----------12--------------------------|
C#|-9-----------9-----------12----------x---------------------------|
G#|-------------------------14----------13--------------------------|
C#|-----------------------------------------------------------------|


  ENDING:



  [GUITAR 1 - distorted]


D#|-----|-----|-----|-----|-----|-----|-----|-----|-----|-----|-----|-----|
A#|-----|-----|-----|-----|-----|-----|-----|-----|-----|-----|-----|-----|
F#|--2--|-----|-----|--5--|-----|--3--|-----|-----|--6--|-----|--4--|-----|
C#|--2--|--0--|--5--|--5--|--3--|--3--|--1--|--6--|--6--|--4--|--4--|--2--|
G#|--0--|--0--|--5--|--3--|--3--|--1--|--1--|--6--|--4--|--4--|--2--|--2--|
C#|-----|--0--|--5--|-----|--3--|-----|--1--|--6--|-----|--4--|-----|--2--|


  [GUITAR 2 - clean]

    o . . . o . . . o . . . o . . .
D#|---------------------------------|
A#|-------------9-------------------|
F#|---------------------------------|
C#|-9-----10------------------------|
G#|---------------------------------|
C#|---------------------------------|


    o . . . o . . . o . . . o . . .
D#|-------------9-------------------|
A#|---------------------------------|
F#|-9-----10------------------------|
C#|---------------------------------|
G#|---------------------------------|
C#|---------------------------------|

    o . . . o . . . o . . . o . . .
D#|---------------------------------|
A#|-------------7-------------------|
F#|---------------------------------|
C#|-7-----8-------------------------|
G#|---------------------------------|
C#|---------------------------------|

    o . . . o . . . o . . . o . . .
D#|-------------7-------------------|
A#|---------------------------------|
F#|-7-----8-------------------------|
C#|---------------------------------|
G#|---------------------------------|
C#|---------------------------------|

    o . . . o . . . o . . . o . . .
D#|---------------------------------|
A#|-------------5-------------------|
F#|---------------------------------|
C#|-5-----6-------------------------|
G#|---------------------------------|
C#|---------------------------------|

    o . . . o . . . o . . . o . . .
D#|-------------5-------------------|
A#|---------------------------------|
F#|-5-----6-------------------------|
C#|---------------------------------|
G#|---------------------------------|
C#|---------------------------------|

    o . . . o . . . o . . . o . . .
D#|-------------10------------------|
A#|---------------------------------|
F#|-10----11------------------------|
C#|---------------------------------|
G#|---------------------------------|
C#|---------------------------------|

    o . . . o . . . o . . . o . . .
D#|-------------3-------------------|
A#|---------------------------------|
F#|-3-----4-------------------------|
C#|---------------------------------|
G#|---------------------------------|
C#|---------------------------------|

    o . . . o . . . o . . . o . . .
D#|-------------8-------------------|
A#|---------------------------------|
F#|-8-----9-------------------------|
C#|---------------------------------|
G#|---------------------------------|
C#|---------------------------------|

    o . . . o . . . o . . . o . . .
D#|---------------------------------|
A#|-------------6-------------------|
F#|---------------------------------|
C#|-6-----7-------------------------|
G#|---------------------------------|
C#|---------------------------------|

    o . . . o . . . o . . . o . . .
D#|-------------6-------------------|
A#|---------------------------------|
F#|-6-----7-------------------------|
C#|---------------------------------|
G#|---------------------------------|
C#|---------------------------------|

    o . . . o . . . o . . . o . . .
D#|-------------4-------------------|
A#|---------------------------------|
F#|---------------------------------|
C#|-4-----5-------------------------|
G#|---------------------------------|
C#|---------------------------------|





            
            
Suggest correction
Creating personal tab
Creating personal tab
You can edit any tab online and save it as your Personal.

You can edit, replace or remove any tab part or add personal notes – all changes will be seen only by you.

Personal tabs can be accessed anytime from any device, even offline.
Learn more »
Give kudos to tab author, rate the tab!
1 2 3 4 5
comments
print report bad tab
guest
You may want to rate the tab now too:
select rating
Wanna post a correction for this tab? Suggest correction