Oops, an error
Loading. Please wait.

Fake Healer bass

version 1
version 1

Whole song

Interactive

604 views 6 this week
no commentswrite comment
1 2 3 4 5
3 more votes to show rating
add to favorites
×
Save as Personal and add changes to this tab that will be seen only by you. Learn more ›
×
You can save this tab as Personal to edit and correct it or add notes. All changes will be seen only by you. Learn more »
launch autoscroll
font size
0
reset
guitar tuner
edit
Autoscroll
slow
fast
+/-
esc
set tempo
stop
Difficulty
intermediate
  >     >     >                      >                     >    >    >       
  E  E  E  E  E  E  S S E     S S E  Q    S S E  S S E     Q    Q    Q       
---------------------------|----------------------------|------------------||
---------------------------|----------------------------|-----------------*||
--------------------3-5-5--|--5-7-7-------7-8-8--8-7-7--|------------------||
---------------------------|----------------------------|-----------------*||
--3--3--3--3--3--3---------|---------3------------------|--3----3----3-----||


                                             >     >     >      
   S S S S S S S S S S S S S S S S    S S E  E  E  E  E  E  E   
-----------------------------------|---------------------------|
*----------------------------------|---------------------------|
-----------------------------------|--3-5-5--------------------|
*--6-5-5-5-5-----------------------|---------------------------|
-------------5-6-6-6-5-5-5-5-4-4-4-|---------3--3--3--3--3--3--|


  >     >     >     >                              >       >                        
  E  E  E  E  E  E  E  E     W                 3x  S S S S S S S S S S S S S S S S  
--------------------------|--------------------||----------------------------------|
--------------------------|-------------------*||----------------------------------|
--------------------------|--1-----------------||--6-5-5-5-5-----------------------|
--------------------------|-------------------*||----------------------------------|
--3--3--3--3--3--3--3--3--|--------------------||------------5-6-6-6-5-5-5-5-4-4-4-|


           >  >         >  >     >     >     >             
    S S E  E  E  S S E  E  E     E  E  E  E  E  E  S S E   
|-----------------------------|---------------------------|
|*----------------------------|---------------------------|
|---3-5-5--------3-5-5--------|--------------------3-5-5--|
|*----------------------------|---------------------------|
|----------3--3---------3--3--|--3--3--3--3--3--3---------|


         >                     >    >    >         >       >       >       >        
  S S E  Q    S S E  S S E     Q    Q    Q         S S S S S S S S S S S S S S S S  
----------------------------|------------------||----------------------------------|
----------------------------|-----------------*||----------------------------------|
--5-7-7-------7-7-7--8-7-7--|------------------||--1-0-0-0-0-----------------------|
----------------------------|-----------------*||------------1-1-1-1-0-0-0-0-------|
---------3------------------|--3----3----3-----||----------------------------4-4-4-|


           >     >     >        >     >     >     >                          
    S S E  E  E  E  E  E  E     E  E  E  E  E  E  E  E     W                 
|----------------------------|--------------------------|-------------------|
|*---------------------------|--------------------------|-------------------|
|---3-5-5--------------------|--------------------------|--1----------------|
|*---------------------------|--------------------------|-------------------|
|----------3--3--3--3--3--3--|--3--3--3--3--3--3--3--3--|-------------------|


  >       >       >       >                    >  >         >  >   
  S S S S S S S S S S S S S S S S  3x   S S E  E  E  S S E  E  E   
-----------------------------------||-----------------------------|
----------------------------------*||*----------------------------|
--1-0-0-0-0------------------------||---3-5-5--------3-5-5--------|
------------1-1-1-1-0-0-0-0-------*||*----------------------------|
----------------------------4-4-4--||----------3--3---------3--3--|


  >     >     >                      >                     >    >    >       
  E  E  E  E  E  E  S S E     S S E  Q    S S E  S S E     Q    Q    Q       
---------------------------|----------------------------|------------------||
---------------------------|--5-7-7-------7-8-8--8-7-7--|-----------------*||
--------------------3-5-5--|----------------------------|------------------||
---------------------------|----------------------------|-----------------*||
--3--3--3--3--3--3---------|---------3------------------|--3----3----3-----||


  >       >       >       >                                                
  S S S S S S S S S S S S S S S S    W                   W                 
----------------------------------|-------------------|-------------------|
----------------------------------|-------------------|-------------------|
--1-0-0-0-0-----------------------|--1----------------|--3----------------|
------------1-1-1-1-0-0-0-0-------|-------------------|-------------------|
----------------------------4-4-4-|-------------------|-------------------|


                      >                        >               >                
  W                   E  E  H.                 S S S S S S S S S S S S S S S S  
-------------------|----------------------||-----------------------------------|
-------------------|----------------------||*----------------------------------|
--1----------------|----------------------||-----------------------------------|
-------------------|----------------------||*--3-3-3-3-3-3-3-3-----------------|
-------------------|--3--3--4~------------||-------------------4-4-4-4-4-4-4-4-|


  >               >                                                    
  S S S S S S S S S S S S S S S S       E  S S E  S S E  S S E  S S  4x
-----------------------------------||--------------------------------||
----------------------------------*||*------------------------------*||
-----------------------------------||-----------------1--1-1---------||
--3-3-3-3-3-3-3-3-----------------*||*--3--3-3---------------1--1-1-*||
------------------4-4-4-4-4-4-4-4--||----------4--4-4----------------||


                                   >               >                
   E  S S E  S S E  E  E  E   4x   S S S S S S S S S S S S S S S S  
------------------------------||-----------------------------------|
*----------------------------*||*----------------------------------|
---5--5-5-8--8-8-7--8--7--6---||-----------------------------------|
*----------------------------*||*--3-3-3-3-3-3-3-3-----------------|
------------------------------||-------------------4-4-4-4-4-4-4-4-|


  >               >                                                    
  S S S S S S S S S S S S S S S S       E  S S E  S S E  S S E  S S  4x
-----------------------------------||--------------------------------||
----------------------------------*||*------------------------------*||
-----------------------------------||-----------------1--1-1---------||
--3-3-3-3-3-3-3-3-----------------*||*--3--3-3---------------1--1-1-*||
------------------4-4-4-4-4-4-4-4--||----------4--4-4----------------||


                                  >       >       >       >        
   E  S S E  S S E  E  E  E   4x  S S S S S S S S S S S S S S S S  
------------------------------||----------------------------------|
*----------------------------*||----------------------------------|
---5--5-5-8--8-8-7--8--7--6---||--1-0-0-0-0-----------------------|
*----------------------------*||------------1-1-1-1-0-0-0-0-------|
------------------------------||----------------------------4-4-4-|


           >  >         >  >     >     >     >             
    S S E  E  E  S S E  E  E     E  E  E  E  E  E  S S E   
|-----------------------------|---------------------------|
|*----------------------------|---------------------------|
|---3-5-5--------3-5-5--------|--------------------3-5-5--|
|*----------------------------|---------------------------|
|----------3--3---------3--3--|--3--3--3--3--3--3---------|


         >                     >    >    >          >       >       >       >        
  S S E  Q    S S E  S S E     Q    Q    Q          S S S S S S S S S S S S S S S S  
----------------------------|------------------||-----------------------------------|
----------------------------|-----------------*||*----------------------------------|
--5-7-7-------7-8-8--8-7-7--|------------------||---1-0-0-0-0-----------------------|
----------------------------|-----------------*||*------------1-1-1-1-0-0-0-0-------|
---------3------------------|--3----3----3-----||-----------------------------4-4-4-|


         >     >     >        >     >     >     >                            
  S S E  E  E  E  E  E  E     E  E  E  E  E  E  E  E     W                 3x
---------------------------|--------------------------|--------------------||
----0-0--------------------|--------------------------|-------------------*||
--3------------------------|--------------------------|--1-----------------||
---------------------------|--------------------------|-------------------*||
---------3--3--3--3--3--3--|--3--3--3--3--3--3--3--3--|--------------------||


  >     >     >     >                 >  >         >  >   
  E  E  E  E  E  E  E  E       S S E  E  E  S S E  E  E   
--------------------------||-----------------------------|
--------------------------||*----0-0----------0-0--------|
--1--0--0-----------------||---3------------3------------|
-----------1--1--0--0-----||*----------------------------|
-----------------------4--||----------3--3---------3--3--|


  >     >     >                      >                     >    >    >       
  E  E  E  E  E  E  S S E     S S E  Q    S S E  S S E     Q    Q    Q     7x
---------------------------|----------------------------|------------------||
----------------------0-0--|--0-2-2-------2-3-3--3-2-2--|-----------------*||
--------------------3------|----------------------------|------------------||
---------------------------|----------------------------|-----------------*||
--3--3--3--3--3--3---------|---------3------------------|--3----3----3-----||


   >       >       >       >                              
   S S S S S S S S S S S S S S S S  3x  W                 
------------------------------------||-------------------|
*----------------------------------*||--0----------------|
---1-0-0-0-0------------------------||-------------------|
*------------1-1-1-1-0-0-0-0-------*||-------------------|
-----------------------------4-4-4--||--3----------------|


          |--3--|        |--3--|     |----3----|    |----3----|     
    E  E  E  E  E  E  E  E  E  E     Q    Q    Q    Q    Q    Q     
|---------------------------------|--------------------------------|
|*--------------------------------|--------------------------------|
|---5--------------5--------------|------------5----3----3----3----|
|*--------------------------------|--1----0------------------------|
|---------3--3--3--------3--3--3--|--------------------------------|


        |--3--|        |--3--|     |----3----|    |----3----|       
  E  E  E  E  E  E  E  E  E  E     Q    Q    Q    Q    Q    Q       
--------------------------------|---------------------------------||
--------------------------------|-----------------5--------------*||
--5--------------5--------------|----------------------3----3-----||
--------------------------------|--1----0----1-------------------*||
--------3--3--3--------3--3--3--|---------------------------------||


  W                   W                   W                                      
-------------------|--L----------------|-------------------|-------------------||
-------------------|--L----------------|-------------------|-------------------||
-------------------|-------------------|-------------------|-------------------||
-------------------|-------------------|-------------------|-------------------||
--3----------------|--L----------------|-------------------|-------------------||
приредио нула-нула-седам-нула-нула-осам

            
            
Suggest correction
Creating personal tab
Creating personal tab
You can edit any tab online and save it as your Personal.

You can edit, replace or remove any tab part or add personal notes – all changes will be seen only by you.

Personal tabs can be accessed anytime from any device, even offline.
Learn more »
Give kudos to tab author, rate the tab!
1 2 3 4 5
comments
print report bad tab
guest
Wanna post a correction for this tab? Suggest correction