Oops, an error
Loading. Please wait.

Over My Dead Body tab

662 views 3 this week
no commentswrite comment
1 2 3 4 5
3 more votes to show rating
add to favorites
×
Save as Personal and add changes to this tab that will be seen only by you. Learn more ›
×
You can save this tab as Personal to edit and correct it or add notes. All changes will be seen only by you. Learn more »
launch autoscroll
font size
0
reset
how to read this tab
guitar tuner
edit
Autoscroll
slow
fast
+/-
esc
set tempo
stop
Author
Difficulty
-------------------------------------------------------------------------------
                             OVER MY DEAD BODY - Metal Church
-------------------------------------------------------------------------------
Tabbed by: ironmanben
Email: bentrooper@gmail.com

Tuning: e B G D A E

guitar 1 - Craig Wells - lead
guitar 2 - Kurdt Vanderhoof - rhythm
guitar 3 - Kurdt Vanderhoof - solos



intro:
(guitar 1:)
e|---------------------------------|---------------------------------|
B|---------------------------------|---------------------------------|
G|---------------------------------|---------------------------------|
D|---------------------------------|---------------------------------|
A|-----5-----6-----5-5---3-----5---|-----5-----6-----5-5-------------|
E|-3-3---3-3---3-3-----3---3-3-----|-3-3---3-3---3-3-----------------|
-| (guitar 2:)                     |                                 |
e|---------------------------------|---------------------------------|
B|---------------------------------|---------------------------------|
G|---------------------------------|---------------------------------|
D|---------------------------------|-----------------5---------------|
A|---------------------------------|-----------------5---------------|
E|---------------------------------|-----------------3---------------|


e|---------------------------------|---------------------------------|
B|---------------------------------|---------------------------------|
G|---------------------------------|---------------------------------|
D|---------------------------------|---------------------------------|
A|-----5-----6-----5-5---3-----5---|-----5-----6-----5-5-------------|
E|-3-3---3-3---3-3-----3---3-3-----|-3-3---3-3---3-3-----------------|
-|                                 |                                 |
e|---------------------------------|---------------------------------|
B|---------------------------------|---------------------------------|
G|---------------------------------|---------------------------------|
D|-5-------------------------------|-------------(5)-5---------------|
A|-5-------------------------------|-------------(5)-5---------------|
E|-3-------------------------------|-------------(3)-3---------------|


main riff:
(guitar 1:)
e|---------------------------------|
B|---------------------------------|
G|---------------------------------|
D|---------------------------------|
A|-----5-----6-----5-5---3-----5---|
E|-3-3---3-3---3-3-----3---3-3-----|
-| (guitar 2:)                     |
e|---------------------------------|
B|---------------------------------|
G|---------------------------------|
D|-5-5-5-5-5-5-5-5-5-5-5-5-5-5-5-5-|
A|-5-5-5-5-5-5-5-5-5-5-5-5-5-5-5-5-|
E|-3-3-3-3-3-3-3-3-3-3-3-3-3-3-3-3-|
   x x x x x x x x x x x x x x x x



guitar solo 1:
(guitar 3:)  
e|-10h13p10---------13-------------------------------------------------15~-|
B|---------13-15-15----15---------------13~~(15)-(13)\\--------------------|
G|----------------------------------------------------------0-----0--------|
D|-------------------------5-5-4-3-----------------------------------------|
A|---------------------------------12\\-----------------12\\--------5\-----|
E|------------------------------------------------------------5\\\---------|
   ^Use LOTS of whammy bar for all of this part.



verse:
(guitar 1:)
 | x2                              | x2                              |
e|---------------------------------|---------------------------------|
B|---------------------------------|---------------------------------|
G|---------------------------------|---------------------------------|
D|---------------------------------|---------------------------------|
A|-----5-----6-----5-5---3-----5---|-----5-----6-----8-8-8-6-6---5---|
E|-3-3---3-3---3-3-----3---3-3-----|-6-6---6-6---6-6-----------------|
-| (guitar 2:)                     |                                 |
e|---------------------------------|---------------------------------|
B|---------------------------------|---------------------------------|
G|---------------------------------|---------------------------------|
D|-5-5-5-5-5-5-5-5-5-5-5-5-5-5-5-5-|-8-8-8-8-8-8-8-8-8-8-8-8-8-8-8-8-|
A|-5-5-5-5-5-5-5-5-5-5-5-5-5-5-5-5-|-8-8-8-8-8-8-8-8-8-8-8-8-8-8-8-8-|
E|-3-3-3-3-3-3-3-3-3-3-3-3-3-3-3-3-|-6-6-6-6-6-6-6-6-6-6-6-6-6-6-6-6-|
   x x x x x x x x x x x x x x x x   x x x x x x x x x x x x x x x x



pre-chorus:
(guitar 1:)
 | x2                              | x2                              |
e|---------------------------------|---------------------------------|
B|---------------------------------|---------------------------------|
G|-10------------------------------|---------------------------------|
D|-10------------------------------|---------------------------------|
A|-8-------------------------------|-----5p3---6p3---5p3---3---3-5---|
E|---------------------------------|-3-3-----3-----3-----3-----------|
-| (guitar 2:)                     |                                 |
e|---------------------------------|---------------------------------|
B|---------------------------------|---------------------------------|
G|---------------------------------|---------------------------------|
D|-3-3-3-3-3-3-3-3-3-3-3-3-3-3-3-3-|---------------------------------|
A|-3-3-3-3-3-3-3-3-3-3-3-3-3-3-3-3-|---------------------------------|
E|-1-1-1-1-1-1-1-1-1-1-1-1-1-1-1-1-|-3-3-3-3-3-3-3-3-3-3-3-3-3-3-3-3-|
   x x x x x x x x x x x x x x x x   x x x x x x x x x x x x x x x x

e|---------------------------------|---------------------------------|
B|---------------------------------|---------------------------------|
G|-10------------------------------|-6-----6-----6-----6-----6---6---|
D|-10------------------------------|-6-----6-----6-----6-----6---6---|
A|-8-------------------------------|---------------------------------|
E|---------------------------------|---------------------------------|
-|                                 |                                 |
e|---------------------------------|---------------------------------|
B|---------------------------------|---------------------------------|
G|---------------------------------|-6-----6-----6-----6-----6---6---|
D|-3-3-3-3-3-3-3-3-3-3-3-3-3-3-3-3-|-6-----6-----6-----6-----6---6---|
A|-3-3-3-3-3-3-3-3-3-3-3-3-3-3-3-3-|-4-----4-----4-----4-----4---4---|
E|-1-1-1-1-1-1-1-1-1-1-1-1-1-1-1-1-|---------------------------------|
   x x x x x x x x x x x x x x x x

e|---------------------------------|---------------------------------|
B|---------------------------------|---------------------------------|
G|---------------------------------|---------------------------------|
D|---------------------------------|-5-------------------------------|
A|-----5-----6-----5-5---3-----5---|-5-------------------------------|
E|-3-3---3-3---3-3-----3---3-3-----|-3-------------------------------|
-|                                 |                                 |
e|---------------------------------|---------------------------------|
B|---------------------------------|---------------------------------|
G|---------------------------------|---------------------------------|
D|-5-5-5-5-5-5-5-5-5-5-5-5-5-5-5-5-|-5-------------------------------|
A|-5-5-5-5-5-5-5-5-5-5-5-5-5-5-5-5-|-5-------------------------------|
E|-3-3-3-3-3-3-3-3-3-3-3-3-3-3-3-3-|-3-------------------------------|
   x x x x x x x x x x x x x x x x


pre-chorus fill 1:
(guitar 3:)
e|---------------17^(19)---17^(19)-|
B|-18^(20)-------------------------|
G|---------------------------------|
D|---------------------------------|
A|---------------------------------|
E|---------------------------------|


guitar solo 2:
e|-17pb(19)r---------------------------------------------------------------|
B|----------15-18-15--------------------15-15------------------------------|
G|-------------------17-15-17-17^(19)---------15-17-15---------------------|
D|-------------------------------------------------------17-------15-------|
A|-------------------------------------------------------------------17-16-|
E|-------------------------------------------------------------------------|

e|-------------------------------------------------------------------------|
B|-----------------------------------------------------------------------8-|
G|-----------------15-12-14-12-15-12-14-12-14-11-13-10-12-9-11-8-9-6-6h7---|
D|-------------------------------------------------------------------------|
A|-15----------------------------------------------------------------------|
E|----18~------------------------------------------------------------------|

e|------------------------------|
B|-----8------------------------|
G|-6h7---15-14-12----------12~--|
D|----------------15-12-15------|
A|------------------------------|
E|------------------------------|

verse 2 fill 1:
(guitar 3:)
e|------------------------------|
B|-10---11----------------------|
G|-------------10----------10---|
D|--------------------11--------|
A|------------------------------|
E|------------------------------|


pre-chorus 2:
(guitar 1:)
 | x2                              | x2                              |
e|---------------------------------|---------------------------------|
B|---------------------------------|---------------------------------|
G|-10------------------------------|---------------------------------|
D|-10------------------------------|---------------------------------|
A|-8-------------------------------|-----5p3---6p3---5p3---3---3-5---|
E|---------------------------------|-3-3-----3-----3-----3-----------|
-| (guitar 2:)                     |                                 |
e|---------------------------------|---------------------------------|
B|---------------------------------|---------------------------------|
G|---------------------------------|---------------------------------|
D|-3-3-3-3-3-3-3-3-3-3-3-3-3-3-3-3-|---------------------------------|
A|-3-3-3-3-3-3-3-3-3-3-3-3-3-3-3-3-|---------------------------------|
E|-1-1-1-1-1-1-1-1-1-1-1-1-1-1-1-1-|-3-3-3-3-3-3-3-3-3-3-3-3-3-3-3-3-|
   x x x x x x x x x x x x x x x x   x x x x x x x x x x x x x x x x

e|---------------------------------|---------------------------------|
B|---------------------------------|---------------------------------|
G|-10------------------------------|-6-----6-----6-----6-----6---6---|
D|-10------------------------------|-6-----6-----6-----6-----6---6---|
A|-8-------------------------------|---------------------------------|
E|---------------------------------|---------------------------------|
-|                                 |                                 |
e|---------------------------------|---------------------------------|
B|---------------------------------|---------------------------------|
G|---------------------------------|-6-----6-----6-----6-----6---6---|
D|-3-3-3-3-3-3-3-3-3-3-3-3-3-3-3-3-|-6-----6-----6-----6-----6---6---|
A|-3-3-3-3-3-3-3-3-3-3-3-3-3-3-3-3-|-4-----4-----4-----4-----4---4---|
E|-1-1-1-1-1-1-1-1-1-1-1-1-1-1-1-1-|---------------------------------|
   x x x x x x x x x x x x x x x x


pre-chorus 2 fill 1:
e|---------------------------------|---------------------------------------|
B|---------------------------------|2-----2------2------2------2------2----|
G|7~~~(5)-----------5-5-5-5-5-5-5-5|4^(6)-4pb(6)-4pb(6)-4pb(6)-4pb(6)-4pb(6)
D|--^depress whammy bar------------|---------------------------------------|
A|---------------------------------|---------------------------------------|
E|---------------------------------|---------------------------------------|




bridge:                                          |Repeat this bit x2 |
 | x7      | x1      | x6      | x1              | x7      | x1      |
e|---------|---------|---------|-----------------|---------|---------|
B|---------|---------|---------|-----------------|---------|---------|
G|---------|---------|---------|-----------------|---------|---------| gtr.
D|---------|---------|---------|-----------------|---------|---------|  1
A|-----1---|-----1---|-----1---|-----1-------1---|-----1---|-----1---|
E|-1-3---3-|-1-3-----|-1-3---3-|-1-3-----1-3-----| 1-3---3-|-1-3-----|
-|         |         |         |                 |         |         |
e|---------|---------|---------|-----------------|---------|---------|
B|---------|---------|---------|-----------------|---------|---------|
G|---------|---------|---------|-----------------|---------|---------| gtr.
D|-----3---|-----3---|-----3---|-----3-------3---|-----3---|-----3---|  2
A|-3-5---5-|-3-5-----|-3-5---5-|-3-5-----3-5-----|-3-5---5-|-3-5-----|
E|---------|---------|---------|-----------------|---------|---------|



bridge fill 1:
(guitar 3:)
e|-------------------------------------|
B|-------------------------------------|
G|-7777---5-5---3---22222222-0-0-------|
D|---------------------------------3---|
A|-------------------------------------|
E|-------------------------------------|


guitar solo rhythm:
 | x2                              | x2                              |
e|---------------------------------|---------------------------------|
B|---------------------------------|---------------------------------|
G|---------------------------------|---------------------------------| gtr. 
D|---------------------------------|---------------------------------|  1
A|---------------------------------|-----5-----6-----8-8-8-6-6---5---| 
E|-2h3-3-3-2h3-3-3-2h3-3-3-2h3-3-3-|-6-6---6-6---6-6-----------------|
-|                                 |                                 |
e|---------------------------------|---------------------------------|
B|---------------------------------|---------------------------------|
G|---------------------------------|---------------------------------| gtr.
D|-5-5-5-5-5-5-5-5-5-5-5-5-5-5-5-5-|-8-8-8-8-8-8-8-8-8-8-8-8-8-8-8-8-|  2
A|-5-5-5-5-5-5-5-5-5-5-5-5-5-5-5-5-|-8-8-8-8-8-8-8-8-8-8-8-8-8-8-8-8-|
E|-3-3-3-3-3-3-3-3-3-3-3-3-3-3-3-3-|-6-6-6-6-6-6-6-6-6-6-6-6-6-6-6-6-|
   x x x x x x x x x x x x x x x x   x x x x x x x x x x x x x x x x



guitar solo 3:
(guitar 3:)
e|---------------------------------------------------------------------|
B|---------------------------------------------------------------------|
G|-5br(7)p3-------------3-3-3-3-0-0-0-0--------------------------------|
D|----------5-5-----3-5--------------------3-----3---------------------|
A|--------------------------------------/5-----5---5-3-3-3-1-----------|
E|-------------------------------------------------------------3-------|

e|-------------------------------------------------------------15----------|
B|-18^(20)-----15-18p15-15----15-18p15----18p15-18p5-18^(20)--------18^(20)|
G|-------------------------17^--------h17----------------------------------|
D|-------------------------------------------------------------------------|
A|-------------------------------------------------------------------------|
E|-------------------------------------------------------------------------|

e|---15---18^(20)-------|-------------------------------------------|
B|----------------------|-----15---15-15---------15---15-15---------|
G|----------------------|-----15---15-15---------15---15-15---------|
D|----------------------|-/17------------15---15------------15---15-|
A|----------------------|-------------------------------------------|
E|----------------------|-------------------------------------------|

e|--------------------------------------|----------------------------------|
B|-15---15-15--------17b(19)r(17)-------|----------------------------------|
G|-15---15-15---17---17b(19)r(17)-------|----------------------------------|
D|--------------------------------------|-------15-15h17p15--15-15h17p15---|
A|--------------------------------------|-15-17------------17-----------17-|
E|--------------------------------------|----------------------------------|

e|-------18-18h20p18--18-18h20p18---------18h20p18--18h20p18--18h20p18---|
B|------------------20-----------20-18h20---------20--------20--------20-|
G|-15h17-----------------------------------------------------------------|
D|-----------------------------------------------------------------------|
A|-----------------------------------------------------------------------|
E|-----------------------------------------------------------------------|

e|-18^(20)-------|-----------3-----------3---------3---------3---------3-|
B|---------------|---------3-----------3---------3---------3-----------3-|
G|---------------|-5^(7)-------5^(7)-------5^(7)-----5^(7)-----5^(7)-----|
D|---------------|-------------------------------------------------------|
A|---------------|-------------------------------------------------------|
E|---------------|-------------------------------------------------------|

e|---------3---------3---------3---------3--------3----------------------|
B|---------3---------3---------3---------3--------3--3---------5---------|
G|-5^(7)-----5^(7)-----5^(7)-----5^(7)-----5^(7)-----5^(7)-----7^(9)-----|
D|-----------------------------------------------------------------------|
A|-----------------------------------------------------------------------|
E|-----------------------------------------------------------------------|

e|------------------------------------------------------------------------|
B|-6------------------------3---------5---------8-------------------------|
G|-8^(10)-------------------5^(7)-----7^(9)-----10^(12)-------------------|
D|------------------------------------------------------------------------|
A|------------------------------------------------------------------------|
E|------------------------------------------------------------------------|

e|-------------15---18^(20)-----18-----15---18^(20)-----18-----15---20^(22)|
B|15-----18----------------------------------------------------------------|
G|-------------------------------------------------------------------------|
D|-------------------------------------------------------------------------|
A|-------------------------------------------------------------------------|
E|-------------------------------------------------------------------------|


e|------------------------------------------------------------------------|
B|-----------------------------------------------15---15-15----------15---|
G|-17pb(19)r(17)-------------15~--\--------------15---15-15----------15---|
D|--------------------------------------------15------------------15------|
A|------------------------------------------------------------------------|
E|------------------------------------------------------------------------|

e|-------------------------------|
B|-15-15---13---15~--------------|
G|-15-15-------------------------|
D|-------------------------------|
A|-------------------------------|
E|-------------------------------|


bridge 2:                                        
 | x7      | x1      | x6      | x1              | x7      | x1      |
e|---------|---------|---------|-----------------|---------|---------|
B|---------|---------|---------|-----------------|---------|---------|
G|---------|-----3---|---------|-----3-3-----3---|---------|-----3---| gtr.
D|---------|-----3---|---------|-----3-3-----3---|---------|-----3---|  1
A|-----1---|-----1---|-----1---|-----1-1-----1---|-----1---|-----1---|
E|-1-3---3-|-1-3-----|-1-3---3-|-1-3-----1-3-----| 1-3---3-|-1-3-----|
-|         |         |         |                 |         |         |
e|---------|---------|---------|-----------------|---------|---------|
B|---------|---------|---------|-----------------|---------|---------|
G|---------|---------|---------|-----------------|---------|---------| gtr.
D|-----3---|-----3---|-----3---|-----3-3-----3---|-----3---|-----3---|  2
A|-3-5---5-|-3-5-----|-3-5---5-|-3-5-----3-5-----|-3-5---5-|-3-5-----|
E|---------|---------|---------|-----------------|---------|---------|


 | x4      | x1                              |
e|---------|---------------------------------|
B|---------|---------------------------------|
G|---------|-------------------------8---7---|
D|---------|-5-----------5-----------8---7---|
A|-----1---|-5-----------5-----------6---5---|
E|-1-3---3-|-3-----------3-------------------|
-|         |                                 |
e|---------|---------------------------------|
B|---------|---------------------------------|
G|---------|-------------------------8---7---|
D|-----3---|-5-----------5-----------8---7---|
A|-3-5---5-|-5-----------5-----------6---5---|
E|---------|-3-----------3-------------------|


bridge fill 2:
e|(15~)--------------------------------------------------------------------|
B|-------------------------------------------------------------------------|
G|-------------------------------------------------------------------------|
D|--------------------------------------------------------------3~~~~~~~~~-|
A|-------------------------------------------------------------------------|
E|-------------------------------------------------------------------------|


pre-chorus 3:
(guitar 1:)
 | x2                              | x2                              |
e|---------------------------------|---------------------------------|
B|---------------------------------|---------------------------------|
G|-10------------------------------|---------------------------------|
D|-10------------------------------|---------------------------------|
A|-8-------------------------------|-----5p3---6p3---5p3---3---3-5---|
E|---------------------------------|-3-3-----3-----3-----3-----------|
-| (guitar 2:)                     |                                 |
e|---------------------------------|---------------------------------|
B|---------------------------------|---------------------------------|
G|---------------------------------|---------------------------------|
D|-3-3-3-3-3-3-3-3-3-3-3-3-3-3-3-3-|---------------------------------|
A|-3-3-3-3-3-3-3-3-3-3-3-3-3-3-3-3-|---------------------------------|
E|-1-1-1-1-1-1-1-1-1-1-1-1-1-1-1-1-|-3-3-3-3-3-3-3-3-3-3-3-3-3-3-3-3-|
   x x x x x x x x x x x x x x x x   x x x x x x x x x x x x x x x x

e|---------------------------------|---------------------------------|
B|---------------------------------|---------------------------------|
G|-10------------------------------|-6-----6-----6-----6-----6---6---|
D|-10------------------------------|-6-----6-----6-----6-----6---6---|
A|-8-------------------------------|---------------------------------|
E|---------------------------------|---------------------------------|
-|                                 |                                 |
e|---------------------------------|---------------------------------|
B|---------------------------------|---------------------------------|
G|---------------------------------|-6-----6-----6-----6-----6---6---|
D|-3-3-3-3-3-3-3-3-3-3-3-3-3-3-3-3-|-6-----6-----6-----6-----6---6---|
A|-3-3-3-3-3-3-3-3-3-3-3-3-3-3-3-3-|-4-----4-----4-----4-----4---4---|
E|-1-1-1-1-1-1-1-1-1-1-1-1-1-1-1-1-|---------------------------------|
   x x x x x x x x x x x x x x x x

e|---------------------------------|---------------------------------|
B|---------------------------------|---------------------------------|
G|---------------------------------|---------------------------------|
D|---------------------------------|---------------------------------|
A|-----5-----6-----5-5---3-----5---|-----5-----6-----5-5---3-----5---|
E|-3-3---3-3---3-3-----3---3-3-----|-3-3---3-3---3-3-----3---3-3-----|
-|                                 |                                 |
e|---------------------------------|---------------------------------|
B|---------------------------------|---------------------------------|
G|---------------------------------|---------------------------------|
D|-5-5-5-5-5-5-5-5-5-5-5-5-5-5-5-5-|-5-5-5-5-5-5-5-5-5-5-5-5-5-5-5-5-|
A|-5-5-5-5-5-5-5-5-5-5-5-5-5-5-5-5-|-5-5-5-5-5-5-5-5-5-5-5-5-5-5-5-5-|
E|-3-3-3-3-3-3-3-3-3-3-3-3-3-3-3-3-|-3-3-3-3-3-3-3-3-3-3-3-3-3-3-3-3-|
   x x x x x x x x x x x x x x x x   x x x x x x x x x x x x x x x x


main riff var. 1:
(guitar 1:)
e|---------------------------------|
B|---------------------------------|
G|---------------------------------|
D|---------------------5---5---5---|
A|-----5-----6-----5---5---5---5---|
E|-3-3---3-3---3-3-3---3---3---3---|
-| (guitar 2:)                     |
e|---------------------------------|
B|---------------------------------|
G|---------------------------------|
D|-5-5-5-5-5-5-5-5-5---5---5---5---|
A|-5-5-5-5-5-5-5-5-5---5---5---5---|
E|-3-3-3-3-3-3-3-3-3---3---3---3---|
   x x x x x x x x x





bridge 3:
(guitar 1:)
e|---------------------------------|---------------------------------|
B|---------------------------------|---------------------------------|
G|-6-----6-----6-----6-----6---6---|---------------------------------|
D|-6-----6-----6-----6-----6---6---|---------------------------------|
A|---------------------------------|-----5-----6-----5-5---3-----5---|
E|---------------------------------|-3-3---3-3---3-3-----3---3-3-----|
-| (guitar 2:)                     |                                 |
e|---------------------------------|---------------------------------|
B|---------------------------------|---------------------------------|
G|-6-----6-----6-----6-----6---6---|---------------------------------|
D|-6-----6-----6-----6-----6---6---|-5-5-5-5-5-5-5-5-5-5-5-5-5-5-5-5-|
A|-4-----4-----4-----4-----4---4---|-5-5-5-5-5-5-5-5-5-5-5-5-5-5-5-5-|
E|---------------------------------|-3-3-3-3-3-3-3-3-3-3-3-3-3-3-3-3-|
-| (guitar 3:)                     | x x x x x x x x x x x x x x x x |
e|-14~---14~---14~---14~---14~-14~-|---------------------------------|
B|---------------------------------|---------------------------------|
G|---------------------------------|---------------------------------|
D|---------------------------------|---------------------------------|
A|---------------------------------|---------------------------------|
E|---------------------------------|---------------------------------|


outro:
(guitar 1:)
 | x1                              | x7      | x1      |
e|---------------------------------|---------|---------|
B|---------------------------------|---------|---------|
G|-6-----6-----6-----6-----6---6---|---------|-----3---|
D|-6-----6-----6-----6-----6---6---|---------|-----3---|
A|---------------------------------|-----1---|-----1---|
E|---------------------------------|-1-3---3-|-1-3-----|
-| (guitar 2:)                     |         |         |
e|---------------------------------|---------|---------|
B|---------------------------------|---------|---------|
G|-6-----6-----6-----6-----6---6---|---------|---------|
D|-6-----6-----6-----6-----6---6---|-----3---|-----3---|
A|-4-----4-----4-----4-----4---4---|-3-5---5-|-3-5-----|
E|---------------------------------|---------|---------|
-| (guitar 3:)                     |         |         |
e|-14~---14~---14~---14~---14~-14~-|-------------------|
B|---------------------------------|-------------------|
G|---------------------------------|----------12\\\9---|
D|---------------------------------|-------------------|
A|---------------------------------|-------------------|
E|---------------------------------|-------------------|





ORDER:
intro
main riff x4/guitar solo 1
verse x2
pre-chorus/pre-chorus fill 1
main riff x4/guitar solo 2
verse x2/verse 2 fill 1
pre-chorus 2/pre-chorus 2 fill 1
bridge/bridge fill 1
guitar solo rhythm x4/guitar solo 3
bridge 2/bridge fill 2
verse x2
pre-chorus 3
main riff x3
main riff var. 1 x1
main riff x2
bridge 3 x2
outro






************************************

| /   slide up
| \   slide down
| h   hammer-on
| p   pull-off
| ~   vibrato
| +   harmonic
| x   Mute note
| ^   Bend
| pb  Pre-bend
| br  Bend release
| pbr Pre-bend release
| brb Bend release bend

************************************

            
            
Suggest correction
Creating personal tab
Creating personal tab
You can edit any tab online and save it as your Personal.

You can edit, replace or remove any tab part or add personal notes – all changes will be seen only by you.

Personal tabs can be accessed anytime from any device, even offline.
Learn more »
Give kudos to tab author, rate the tab!
1 2 3 4 5
comments
print report bad tab
guest
You may want to rate the tab now too:
select rating
Wanna post a correction for this tab? Suggest correction