Oops, an error
Loading. Please wait.

The Dark bass

version 1
version 1

Whole song

Interactive

294 views 3 this week
no commentswrite comment
1 2 3 4 5
3 more votes to show rating
add to favorites
×
Save as Personal and add changes to this tab that will be seen only by you. Learn more ›
×
You can save this tab as Personal to edit and correct it or add notes. All changes will be seen only by you. Learn more »
launch autoscroll
font size
0
reset
guitar tuner
edit
Autoscroll
slow
fast
+/-
esc
set tempo
stop
Author
Difficulty
Artist: Metal Church
Album: The Dark
Song: The Dark

Tuning: Standard

Intro
G-|-D--F-|-------|-------------|-------------|-------------|-------------|
D-|-R--I-|-------|-------------|-------------|-------------|-------------|
A-|-U--L-|-------|-------------|-------------|-------------|-------------|
E-|-M--L-|-12-11-|-11-11-11-11-|-12-12-12-12-|-11-11-11-11-|-12-12-12-12-|

G-|-------------|-------------|-------------|-------------|--------------|
D-|-------------|-------------|-------------|-------------|--------------|
A-|-------------|-------------|-------------|-------------|--------------|
E-|-11-11-11-11-|-12-12-12-12-|-11-11-11-11-|-12-12-12-12-|-11--------12-|

Verse 1

G-|-----------------------------------------|
D-|-----------------------------------------|
A-|------8p7------7-8-10-------8p7----------|
E-|-0-00-----00-00-------00-00-----00-0-0-6-|

Its way past midnight, there's a howling wind…oh God what can it be?

G-|-----------------------------------------|
D-|-----------------------------------------|
A-|------8p7------7-8-10-------8p7----------|
E-|-0-00-----00-00-------00-00-----0-6-0-6--|

Something out there evil and its coming straight for me

G-|-----------------------------------------|
D-|-----------------------------------------|
A-|------8p7------7-8-10-------8p7----------|
E-|-0-00-----00-00-------00-00-----00-0-0-6-|

The house is dark and very cold; I know there's no one here

G-|-----------------------------------------|
D-|-----------------------------------------|
A-|------8p7------7-8-10-------8p7----------|
E-|-0-00-----00-00-------00-00-----00000000-|

Why am I scared to death, just petrified with fear?


Chorus

G-|-------------------------------------------------------|
D-|-------------------------------------------------------|
A-|-------------------------------------------------7-----|
E-|-5/6-66-6/5-55-5/6-66-6/5-55-5/6-66-6/5-55-0-8-7---8-7-|

'Cause I'm shakin' and I'm thinkin' of something evil lurking
And waiting for me in the house

'Cause I'm shakin' and I'm thinkin' of something evil lurking
And waiting for me in the dark

G-|--------------------------------------------------------------|--FILL---|
D-|--------------------------------------------------------------|---------|
A-|-6666666666666666-7777777777777777-66666666666666666-77777777-|-----1---|
E-|--------------------------------------------------------------|-1-3---1-|

The dark


Verse 2

G-|-----------------------------------------|
D-|-----------------------------------------|
A-|------8p7------7-8-10-------8p7----------|
E-|-0-00-----00-00-------00-00-----00-0-0-6-|

When I opened up the door and snapped on the switch the room was filled with light

G-|-----------------------------------------|
D-|-----------------------------------------|
A-|------8p7------7-8-10-------8p7----------|
E-|-0-00-----00-00-------00-00-----0-6-0-6--|

Then something black and very fast, fled upon my sight

G-|-----------------------------------------|
D-|-----------------------------------------|
A-|------8p7------7-8-10-------8p7----------|
E-|-0-00-----00-00-------00-00-----00-0-0-6-|

What I feared most as a child was the coming of the night

G-|-----------------------------------------|
D-|-----------------------------------------|
A-|------8p7------7-8-10-------8p7----------|
E-|-0-00-----00-00-------00-00-----00000000-|

Now my horrors have become quite real, my nightmares breathe new life


Chorus

G-|-------------------------------------------------------|
D-|-------------------------------------------------------|
A-|-------------------------------------------------7-----|
E-|-5/6-66-6/5-55-5/6-66-6/5-55-5/6-66-6/5-55-0-8-7---8-7-|

'Cause I'm shakin' and I'm thinkin' of something evil lurking
And waiting for me in the house

'Cause I'm shakin' and I'm thinkin' of something evil lurking
And waiting for me in the dark…DARK


Instrumental Section

G-|--FILL---|----R-E-P-E-A-T-----|-----T-W-I-C-E------|
D-|---------|--------------------|--------------------|
A-|-----1---|--------------------|--------------------|
E-|-1-3---1-|-2222-5p-2222-2-2-3-|-2222-5p-2222-2-2-1-|

G-|-------------------------------------------|-R-|-------------|
D-|-------------------------------------------|-E-|-------------|
A-|-------------------------------------------|-S-|-------------|
E-|-66666666666666666666-55555555555555555555-|-T-|-5-5-5-5-5-5-|

G-|-------------------------------------------------------FILL--|
D-|-------------------------------------------------------------|
A-|---------------------------------------------------------1---|
E-|-12/-0-00-00-00-12/-0-00-00-00-12/-0-00-00-00-12/----1-3---1-|


Verse 3

G-|-----------------------------------------|
D-|-----------------------------------------|
A-|------8p7------7-8-10-------8p7----------|
E-|-0-00-----00-00-------00-00-----00-0-0-6-|

What is it in the house that the darkness brings to life?

G-|-----------------------------------------|
D-|-----------------------------------------|
A-|------8p7------7-8-10-------8p7----------|
E-|-0-00-----00-00-------00-00-----0-6-0-6--|

I sense their eyes upon me as I grab a butcher knife

G-|-----------------------------------------|
D-|-----------------------------------------|
A-|------8p7------7-8-10-------8p7----------|
E-|-0-00-----00-00-------00-00-----00-0-0-6-|

Whatever it is that waits for me it hides beneath my bed

G-|-----------------------------------------|
D-|-----------------------------------------|
A-|------8p7------7-8-10-------8p7----------|
E-|-0-00-----00-00-------00-00-----00000000-|

And if I try to sleep tonight by morning I'll be dead!


Chorus (Repeat twice)

G-|-------------------------------------------------------|
D-|-------------------------------------------------------|
A-|-------------------------------------------------7-----|
E-|-5/6-66-6/5-55-5/6-66-6/5-55-5/6-66-6/5-55-0-8-7---8-7-|

'Cause I'm shakin' and I'm thinkin' of something evil lurking
And waiting for me in the house

G-|-------------------------------------------------------|
D-|-------------------------------------------------------|
A-|-------------------------------------------------7-----|
E-|-5/6-66-6/5-55-5/6-66-6/5-55-5/6-66-6/5-55-0-8-7---8-7-|

Yes, I'm shakin' and I'm thinkin' of something evil lurking
And waiting for me in the dark


G-|-------------------------------------------------|
D-|-------------------------------------------------|
A-|-------------------------------------------------|
E-|-0-0-0-0-0-0-0-0-0-0-0-0-0-0-0-0-0-0-0-0-0-0-0-0-|

The dark…dark 


Chorus (Repeat twice)

G-|-------------------------------------------------------|
D-|-------------------------------------------------------|
A-|---------------------------------------------------7---|
E-|-5/6-66-6/5-55-5/6-66-6/5-55-5/6-66-6/5-55-0-8-7---8-7-|

'Cause I'm shakin' and I'm thinkin' of something evil lurking
And waiting for me in the house

G-|-------------------------------------------|
D-|-------------------------------------------|
A-|-------------------------------------------|
E-|-5/6-66-6/5-55-5/6-66-6/5-55-5/6-66-6/5-55-|

Yes, I'm shakin' and I'm thinkin' of something evil lurking
And waiting for me in the dark

            
            
Suggest correction
Creating personal tab
Creating personal tab
You can edit any tab online and save it as your Personal.

You can edit, replace or remove any tab part or add personal notes – all changes will be seen only by you.

Personal tabs can be accessed anytime from any device, even offline.
Learn more »
Give kudos to tab author, rate the tab!
1 2 3 4 5
comments
print report bad tab
guest
You may want to rate the tab now too:
select rating
Wanna post a correction for this tab? Suggest correction