Oops, an error
Loading. Please wait.

Sword And Sorcery tab

327 views 1 this week
no commentswrite comment
1 2 3 4 5
3 more votes to show rating
add to favorites
×
Save as Personal and add changes to this tab that will be seen only by you. Learn more ›
×
You can save this tab as Personal to edit and correct it or add notes. All changes will be seen only by you. Learn more »
launch autoscroll
font size
0
reset
how to read this tab
guitar tuner
edit
Autoscroll
slow
fast
+/-
esc
set tempo
stop
Author
Difficulty
Tabbers playing skills
intermediate
intermediate +
Official Metalforce site - http://metalforce.de/


                           
Guitar 1

             Q.     E  H           H        H           Q.     E  H         
E||-------|---------------------|--------------------|---------------------|
B||-------|---------------------|--------------------|---------------------|
G||-------|---------------------|--------------------|---------------------|
D||-------|---------------------|--3-----------------|---------------------|
A||-------|--3------5--6--------|-----------3--------|--3------5--6--------|
E||-------|---------------------|--------------------|---------------------|


  Q    Q    H           W                   W                 
---------------------|-------------------|-------------------|
---------------------|-------------------|-------------------|
---------------------|--5----------------|--L----------------|
---------------------|--5----------------|--L----------------|
------------3--------|--3----------------|--L----------------|
--4----3-------------|-------------------|-------------------|


  W                   H        H            H        Q    Q     
-------------------|--------------------|----------------------|
-------------------|--------------------|----------------------|
--5----------------|--3--------5--------|--10--------8----7----|
--5----------------|--3--------5--------|--10--------8----8----|
--3----------------|--1--------3--------|---8--------6----5----|
-------------------|--------------------|----------------------|


  W                   W                   H        H         
-------------------|-------------------|--------------------|
-------------------|-------------------|--------------------|
--5----------------|--5----------------|--3--------5--------|
--5----------------|--5----------------|--3--------5--------|
--3----------------|--3----------------|--1--------3--------|
-------------------|-------------------|--------------------|


   H        Q    Q       W                   W                 
----------------------|-------------------|-------------------|
----------------------|-------------------|-------------------|
--10--------8----7----|--5----------------|-------------------|
--10--------8----8----|--5----------------|--6----------------|
---8--------6----5----|--3----------------|--6----------------|
----------------------|-------------------|--4----------------|


                      PM PM    PM PM PM    PM    PM PM    PM PM PM    PM  
  W                   E  E  E  E  E  E  E  E     E  E  E  E  E  E  E  E   
-------------------|--------------------------|--------------------------|
-------------------|--------------------------|--------------------------|
-------------------|--------5-----------5-----|--------5-----------5-----|
--6----------------|--------5-----------5-----|--------5-----------5-----|
--6----------------|--3--3-----3--3--3-----3--|--3--3-----3--3--3-----3--|
--4----------------|--------------------------|--------------------------|


                                          PM PM PM PM PM PM PM PM  
  W                   W                   E  E  E  E  E  E  E  E   
-------------------|-------------------|--------------------------|
-------------------|-------------------|--------------------------|
-------------------|-------------------|--------------------------|
--6----------------|--6----------------|--------------------------|
--6----------------|--6----------------|--8--8--8--8--8--8--8--8--|
--4----------------|--4----------------|--6--6--6--6--6--6--6--6--|


  E  E  H.              E  E  E  E  S S S S S S S S  
---------------------|------------------------------|
---------------------|------------------------------|
---------------------|--8--8--8--8--7-7-7-7-7-7-7-7-|
--8------------------|--8--8--8--8--8-8-8-8-8-8-8-8-|
--8------------------|--6--6--6--6--5-5-5-5-5-5-5-5-|
--6------------------|------------------------------|


    Q.      E  E  E  Q        E  E  E  E  H            Q.      E  E  E  Q      
|--------------------------|------------------------|-------------------------|
|-----------------6--8~----|--6---------------------|----------------6--8~----|
|*--5~---------8-----------|-----7-----7--5~--------|--5~---------8-----------|
|*----------8--------------|--------8---------------|----------8--------------|
|--------------------------|------------------------|-------------------------|
|--------------------------|------------------------|-------------------------|


  E  E  E  E  H              E  E  E  E  H            W                 
-------------------------||------------------------|-------------------|
--6-----8--8-------------||--6-----8--8------------|-------------------|
-----8--------5~--------*||-----8--------5~--------|--5----------------|
------------------------*||------------------------|--5----------------|
-------------------------||------------------------|--3----------------|
-------------------------||------------------------|-------------------|


  W                   W                   H        H         
-------------------|-------------------|--------------------|
-------------------|-------------------|--------------------|
--L----------------|--5----------------|--3--------5--------|
--L----------------|--5----------------|--3--------5--------|
--L----------------|--3----------------|--1--------3--------|
-------------------|-------------------|--------------------|


   H        Q    Q       W                   W                 
----------------------|-------------------|-------------------|
----------------------|-------------------|-------------------|
--10--------8----7----|--5----------------|--5----------------|
--10--------8----8----|--5----------------|--5----------------|
---8--------6----5----|--3----------------|--3----------------|
----------------------|-------------------|-------------------|


  H        H            H        Q    Q       W                 
--------------------|----------------------|-------------------|
--------------------|----------------------|-------------------|
--3--------5--------|--10--------8----7----|--5----------------|
--3--------5--------|--10--------8----8----|--5----------------|
--1--------3--------|---8--------6----5----|--3----------------|
--------------------|----------------------|-------------------|


                                          PM PM    PM PM PM    PM  
  W                   W                   E  E  E  E  E  E  E  E   
-------------------|-------------------|--------------------------|
-------------------|-------------------|--------------------------|
-------------------|-------------------|--------5-----------5-----|
--6----------------|--6----------------|--------5-----------5-----|
--6----------------|--6----------------|--3--3-----3--3--3-----3--|
--4----------------|--4----------------|--------------------------|


  PM PM    PM PM PM    PM                                          
  E  E  E  E  E  E  E  E     W                   W                 
--------------------------|-------------------|-------------------|
--------------------------|-------------------|-------------------|
--------5-----------5-----|-------------------|-------------------|
--------5-----------5-----|--6----------------|--6----------------|
--3--3-----3--3--3-----3--|--6----------------|--6----------------|
--------------------------|--4----------------|--4----------------|


  PM PM PM PM PM PM PM PM                                                       
  E  E  E  E  E  E  E  E     E  E  H.              E  E  E  E  S S S S S S S S  
--------------------------|---------------------|------------------------------|
--------------------------|---------------------|------------------------------|
--------------------------|---------------------|--8--8--8--8--7-7-7-7-7-7-7-7-|
--------------------------|--8------------------|--8--8--8--8--8-8-8-8-8-8-8-8-|
--8--8--8--8--8--8--8--8--|--8------------------|--6--6--6--6--5-5-5-5-5-5-5-5-|
--6--6--6--6--6--6--6--6--|--6------------------|------------------------------|


    Q.      E  E  E  Q        E  E  E  E  H            Q.      E  E  E  Q      
|--------------------------|------------------------|-------------------------|
|-----------------6--8~----|--6---------------------|----------------6--8~----|
|*--5~---------8-----------|-----7-----7--5~--------|--5~---------8-----------|
|*----------8--------------|--------8---------------|----------8--------------|
|--------------------------|------------------------|-------------------------|
|--------------------------|------------------------|-------------------------|


  E  E  E  E  H              E  E  E  E  H            W                 
-------------------------||------------------------|-------------------|
--6-----8--8-------------||--6-----8--8------------|-------------------|
-----8--------5~--------*||-----8--------5~--------|--5----------------|
------------------------*||------------------------|--5----------------|
-------------------------||------------------------|--3----------------|
-------------------------||------------------------|-------------------|


  W                    Q    S  S  E   E   S  S  E.   S  
-------------------|-----------------------------------|
-------------------|-----------------------------------|
--L----------------|-----------------10-------------12-|
--L----------------|--10----L-12-13------13-12-13------|
--L----------------|-----------------------------------|
-------------------|-----------------------------------|


   Q     E   E   Q.      S  S     E   E   E   E   E   E   E.   S  
------------------------------|----------------------------------|
------------------------------|----------------------------------|
--13----12--10--12------12-13-|--15--12--------------------------|
------------------------------|----------13--15--12--13--12---13-|
------------------------------|----------------------------------|
------------------------------|----------------------------------|


   Q.       S  S  Q.      S  S     E.   S  E   S  S   E   E   E   E   
-------------------------------|-------------------------------------|
-------------------------------|-------------------------------------|
-------------------------------|-------------------------------------|
--12~------12-13-12------10----|--10---12-13--12-13s-15--13--12--13--|
----------------------------13-|-------------------------------------|
-------------------------------|-------------------------------------|


   E   E   E   E   S  S  S  S  S  S  S  S  
------------------------------------------|
--------------11--13-15-13-11-13-11-------|
--13--12--13------------------------13-12-|
------------------------------------------|
------------------------------------------|
------------------------------------------|


   Q     T   T   S  E   E   E   E.   S    Q.      S S Q    S S  S S  
---------------------------------------|----------------------------|
---------------------------------------|----------------------------|
--12----12h-13p-12-10--12------10~---8-|--8------10-8-7----8-7------|
---------------------------13----------|-----------------------10-8-|
---------------------------------------|----------------------------|
---------------------------------------|----------------------------|


   Q.     E  Q     E  E     Q.      E  H            Q.     E  Q    E   E   
-------------------------|----------------------|-------------------------|
-------------------------|----------------------|-------------------------|
----------7--8----10--8--|--7-------------------|----------7--8----7------|
--10---------------------|---------10--9--------|--10-----------------10--|
-------------------------|----------------------|-------------------------|
-------------------------|----------------------|-------------------------|


  S S Q.     Q    S S  S S     Q.     E  Q     E  E     Q.      E  H         
---------------------------|-------------------------|----------------------|
---------------------------|-------------------------|----------------------|
--7-8-7------L----8-7------|----------7--8----10--8--|--7-------------------|
----------------------10-8-|--10---------------------|---------10--9--------|
---------------------------|-------------------------|----------------------|
---------------------------|-------------------------|----------------------|


   Q.     E  Q    E   E     S S Q    S S  E  E  T  T  S  E   
-------------------------|----------------------------------|
-------------------------|----------------------------------|
----------7--8----7------|--7-8-7----7-8-10--8--7h-8p-7-----|
--10-----------------10--|------------------------------10--|
-------------------------|----------------------------------|
-------------------------|----------------------------------|


   W                   W                                     
--------------------|-------------------|-------------------|
--------------------|-------------------|-------------------|
--------------------|-------------------|-------------------|
--10----------------|--L----------------|-------------------|
--------------------|-------------------|-------------------|
--------------------|-------------------|-------------------|


-------------------|-------------------|-------------------|-------------------|
-------------------|-------------------|-------------------|-------------------|
-------------------|-------------------|-------------------|-------------------|
-------------------|-------------------|-------------------|-------------------|
-------------------|-------------------|-------------------|-------------------|
-------------------|-------------------|-------------------|-------------------|


-------------------|-------------------|-------------------|-------------------|
-------------------|-------------------|-------------------|-------------------|
-------------------|-------------------|-------------------|-------------------|
-------------------|-------------------|-------------------|-------------------|
-------------------|-------------------|-------------------|-------------------|
-------------------|-------------------|-------------------|-------------------|


    Q.       E   E  E   Q        E  E   E  E  H          
|-----------------------------|-------------------------|
|-------------------8--10~----|--8----------------------|
|*--7~----------10------------|-----9------9--7~--------|
|*----------10----------------|--------10---------------|
|-----------------------------|-------------------------|
|-----------------------------|-------------------------|


  Q.       E   E  E   Q        E   E   E   E  H            
----------------------------|----------------------------||
------------------8--10~----|--8------10--10-------------||
--7~----------10------------|-----10----------7~--------*||
----------10----------------|---------------------------*||
----------------------------|----------------------------||
----------------------------|----------------------------||


  E   E   E   E  H              Q.       E   E   E   Q      
---------------------------||------------------------------|
--8------10--10------------||-------------------10--12~----|
-----10----------7~--------||*--9~----------12-------------|
---------------------------||*----------12-----------------|
---------------------------||------------------------------|
---------------------------||------------------------------|


   E   E   E   E  H            Q.       E   E   E   Q      
----------------------------|-----------------------------|
--10------------------------|------------------10--12~----|
------11------11--9~--------|--9~----------12-------------|
----------12----------------|----------12-----------------|
----------------------------|-----------------------------|
----------------------------|-----------------------------|


   E   E   E   E  H               Q.       E   E  E   Q      
-----------------------------||-----------------------------|
--10------12--12-------------||-------------------8--10~----|
------12----------9~--------*||*--7~----------10------------|
----------------------------*||*----------10----------------|
-----------------------------||-----------------------------|
-----------------------------||-----------------------------|


  E  E   E  E  H            Q.       E   E  E   Q      
-------------------------|----------------------------|
--8----------------------|------------------8--10~----|
-----9------9--7~--------|--7~----------10------------|
--------10---------------|----------10----------------|
-------------------------|----------------------------|
-------------------------|----------------------------|


  E   E   E   E  H              Q.       E   E  E   Q      
----------------------------||----------------------------|
--8------10--10-------------||------------------8--10~----|
-----10----------7~--------*||--7~----------10------------|
---------------------------*||----------10----------------|
----------------------------||----------------------------|
----------------------------||----------------------------|


  E  E   E  E  H            Q.       E   E  E   Q      
-------------------------|----------------------------|
--8----------------------|------------------8--10~----|
-----9------9--7~--------|--7~----------10------------|
--------10---------------|----------10----------------|
-------------------------|----------------------------|
-------------------------|----------------------------|


  E   E   E   E  H           
---------------------------||
--8------10--10------------||
-----10----------7~--------||
---------------------------||
---------------------------||
---------------------------||




Guitar 2

             Q.     E  H           H        H           Q.     E  H         
E||-------|---------------------|--------------------|---------------------|
B||-------|---------------------|--------------------|---------------------|
G||-------|--5------7--8--------|-----------5--------|--5------7--8--------|
D||-------|--5------7--8--------|--3--------5--------|--5------7--8--------|
A||-------|--3------5--6--------|--3--------3--------|--3------5--6--------|
E||-------|---------------------|--1-----------------|---------------------|


  Q    Q    H           W                   W                 
---------------------|-------------------|-------------------|
---------------------|-------------------|-------------------|
------------5--------|--5----------------|--L----------------|
--6----5----5--------|--5----------------|--L----------------|
--6----5----3--------|--3----------------|--L----------------|
--4----3-------------|-------------------|-------------------|


  W                   H        H            H        Q    Q     
-------------------|--------------------|----------------------|
-------------------|--------------------|----------------------|
--5----------------|--3--------5--------|--10--------8----7----|
--5----------------|--3--------5--------|--10--------8----8----|
--3----------------|--1--------3--------|---8--------6----5----|
-------------------|--------------------|----------------------|


  W                   W                   H        H         
-------------------|-------------------|--------------------|
-------------------|-------------------|--------------------|
--5----------------|--5----------------|--3--------5--------|
--5----------------|--5----------------|--3--------5--------|
--3----------------|--3----------------|--1--------3--------|
-------------------|-------------------|--------------------|


   H        Q    Q       W                   W                 
----------------------|-------------------|-------------------|
----------------------|-------------------|-------------------|
--10--------8----7----|--5----------------|-------------------|
--10--------8----8----|--5----------------|--6----------------|
---8--------6----5----|--3----------------|--6----------------|
----------------------|-------------------|--4----------------|


                      PM PM    PM PM PM    PM    PM PM    PM PM PM    PM  
  W                   E  E  E  E  E  E  E  E     E  E  E  E  E  E  E  E   
-------------------|--------------------------|--------------------------|
-------------------|--------------------------|--------------------------|
-------------------|--------5-----------5-----|--------5-----------5-----|
--6----------------|--------5-----------5-----|--------5-----------5-----|
--6----------------|--3--3-----3--3--3-----3--|--3--3-----3--3--3-----3--|
--4----------------|--------------------------|--------------------------|


                                          PM PM PM PM PM PM PM PM  
  W                   W                   E  E  E  E  E  E  E  E   
-------------------|-------------------|--------------------------|
-------------------|-------------------|--------------------------|
-------------------|-------------------|--------------------------|
--6----------------|--6----------------|--------------------------|
--6----------------|--6----------------|--8--8--8--8--8--8--8--8--|
--4----------------|--4----------------|--6--6--6--6--6--6--6--6--|


  E  E  H.              E  E  E  E  S S S S S S S S      Q.     E  H         
---------------------|------------------------------||----------------------|
---------------------|------------------------------||----------------------|
---------------------|--8--8--8--8--7-7-7-7-7-7-7-7-||*--5------3--8--------|
--8------------------|--8--8--8--8--8-8-8-8-8-8-8-8-||*--5------3--8--------|
--8------------------|--6--6--6--6--5-5-5-5-5-5-5-5-||---3------1--6--------|
--6------------------|------------------------------||----------------------|


  H        H           Q.     E  H           Q    Q    H           
--------------------|---------------------|----------------------||
--------------------|---------------------|----------------------||
--3--------5--------|--5------3--8--------|------------5--------*||
--3--------5--------|--5------3--8--------|--6----5----5--------*||
--1--------3--------|--3------1--6--------|--6----5----3---------||
--------------------|---------------------|--4----3--------------||


  Q    Q    H           W                   W                 
---------------------|-------------------|-------------------|
---------------------|-------------------|-------------------|
------------5--------|--5----------------|--L----------------|
--6----5----5--------|--5----------------|--L----------------|
--6----5----3--------|--3----------------|--L----------------|
--4----3-------------|-------------------|-------------------|


  W                   H        H            H        Q    Q     
-------------------|--------------------|----------------------|
-------------------|--------------------|----------------------|
--5----------------|--3--------5--------|--10--------8----7----|
--5----------------|--3--------5--------|--10--------8----8----|
--3----------------|--1--------3--------|---8--------6----5----|
-------------------|--------------------|----------------------|


  W                   W                   H        H         
-------------------|-------------------|--------------------|
-------------------|-------------------|--------------------|
--5----------------|--5----------------|--3--------5--------|
--5----------------|--5----------------|--3--------5--------|
--3----------------|--3----------------|--1--------3--------|
-------------------|-------------------|--------------------|


   H        Q    Q       W                   W                 
----------------------|-------------------|-------------------|
----------------------|-------------------|-------------------|
--10--------8----7----|--5----------------|-------------------|
--10--------8----8----|--5----------------|--6----------------|
---8--------6----5----|--3----------------|--6----------------|
----------------------|-------------------|--4----------------|


                      PM PM    PM PM PM    PM    PM PM    PM PM PM    PM  
  W                   E  E  E  E  E  E  E  E     E  E  E  E  E  E  E  E   
-------------------|--------------------------|--------------------------|
-------------------|--------------------------|--------------------------|
-------------------|--------5-----------5-----|--------5-----------5-----|
--6----------------|--------5-----------5-----|--------5-----------5-----|
--6----------------|--3--3-----3--3--3-----3--|--3--3-----3--3--3-----3--|
--4----------------|--------------------------|--------------------------|


                                          PM PM PM PM PM PM PM PM  
  W                   W                   E  E  E  E  E  E  E  E   
-------------------|-------------------|--------------------------|
-------------------|-------------------|--------------------------|
-------------------|-------------------|--------------------------|
--6----------------|--6----------------|--------------------------|
--6----------------|--6----------------|--8--8--8--8--8--8--8--8--|
--4----------------|--4----------------|--6--6--6--6--6--6--6--6--|


  E  E  H.              E  E  E  E  S S S S S S S S      Q.     E  H         
---------------------|------------------------------||----------------------|
---------------------|------------------------------||----------------------|
---------------------|--8--8--8--8--7-7-7-7-7-7-7-7-||*--5------3--8--------|
--8------------------|--8--8--8--8--8-8-8-8-8-8-8-8-||*--5------3--8--------|
--8------------------|--6--6--6--6--5-5-5-5-5-5-5-5-||---3------1--6--------|
--6------------------|------------------------------||----------------------|


  H        H           Q.     E  H           Q    Q    H           
--------------------|---------------------|----------------------||
--------------------|---------------------|----------------------||
--3--------5--------|--5------3--8--------|------------5--------*||
--3--------5--------|--5------3--8--------|--6----5----5--------*||
--1--------3--------|--3------1--6--------|--6----5----3---------||
--------------------|---------------------|--4----3--------------||


  Q    Q    H           W                   W                 
---------------------|-------------------|-------------------|
---------------------|-------------------|-------------------|
------------5--------|--5----------------|--L----------------|
--6----5----5--------|--5----------------|--L----------------|
--6----5----3--------|--3----------------|--L----------------|
--4----3-------------|-------------------|-------------------|


  E  S S E  S S E  S S E  S S    E  S S E  S S E  S S E  S S  
------------------------------|------------------------------|
------------------------------|------------------------------|
------------------------------|------------------------------|
--5--5-5-5--5-5-5--5-5-5--5-5-|------------------------------|
--3--3-3-3--3-3-3--3-3-3--3-3-|--5--5-5-5--5-5-5--5-5-5--5-5-|
------------------------------|--3--3-3-3--3-3-3--3-3-3--3-3-|


  E  S S E  S S E  S S E  S S    E  S S E  S S E  S S E  S S  
------------------------------|------------------------------|
------------------------------|------------------------------|
------------------------------|------------------------------|
------------------------------|------------------------------|
--6--6-6-6--6-6-6--6-6-3--3-3-|--5--5-5-5--5-5-5--5-5-8--8-8-|
--4--4-4-4--4-4-4--4-4-1--1-1-|--3--3-3-3--3-3-3--3-3-6--6-6-|


  E  S S E  S S E  S S E  S S    E  S S E  S S E  S S E  S S  
------------------------------|------------------------------|
------------------------------|------------------------------|
------------------------------|------------------------------|
--5--5-5-5--5-5-5--5-5-5--5-5-|------------------------------|
--3--3-3-3--3-3-3--3-3-3--3-3-|--5--5-5-5--5-5-5--5-5-5--5-5-|
------------------------------|--3--3-3-3--3-3-3--3-3-3--3-3-|


  E  S S E  S S E  S S E  S S    E  S S E  S S E  S S E  S S  
------------------------------|------------------------------|
------------------------------|------------------------------|
------------------------------|------------------------------|
------------------------------|------------------------------|
--6--6-6-6--6-6-6--6-6-3--3-3-|--5--5-5-5--5-5-5--5-5-8--8-8-|
--4--4-4-4--4-4-4--4-4-1--1-1-|--3--3-3-3--3-3-3--3-3-6--6-6-|


  E  S S E  S S E  S S E  S S    E  S S E  S S E  S S E  S S  
------------------------------|------------------------------|
------------------------------|------------------------------|
------------------------------|------------------------------|
--5--5-5-5--5-5-5--5-5-5--5-5-|------------------------------|
--3--3-3-3--3-3-3--3-3-3--3-3-|--5--5-5-5--5-5-5--5-5-5--5-5-|
------------------------------|--3--3-3-3--3-3-3--3-3-3--3-3-|


  E  S S E  S S E  S S E  S S    E  S S E  S S E  S S E  S S  
------------------------------|------------------------------|
------------------------------|------------------------------|
------------------------------|------------------------------|
------------------------------|------------------------------|
--6--6-6-6--6-6-6--6-6-3--3-3-|--5--5-5-5--5-5-5--5-5-8--8-8-|
--4--4-4-4--4-4-4--4-4-1--1-1-|--3--3-3-3--3-3-3--3-3-6--6-6-|


  E  S S E  S S E  S S E  S S    E  S S E  S S E  S S E  S S  
------------------------------|------------------------------|
------------------------------|------------------------------|
------------------------------|------------------------------|
--5--5-5-5--5-5-5--5-5-5--5-5-|------------------------------|
--3--3-3-3--3-3-3--3-3-3--3-3-|--5--5-5-5--5-5-5--5-5-5--5-5-|
------------------------------|--3--3-3-3--3-3-3--3-3-3--3-3-|


  E  S S E  S S E  S S E  S S    E  S S E  S S E  S S E  S S  
------------------------------|------------------------------|
------------------------------|------------------------------|
------------------------------|------------------------------|
------------------------------|------------------------------|
--6--6-6-6--6-6-6--6-6-3--3-3-|--5--5-5-5--5-5-5--5-5-8--8-8-|
--4--4-4-4--4-4-4--4-4-1--1-1-|--3--3-3-3--3-3-3--3-3-6--6-6-|


  W                   W                   E  E  E  E  E  E  E  E   
-------------------|-------------------|--------------------------|
-------------------|-------------------|--------------------------|
--5----------------|--L----------------|--------5-----------8-----|
--5----------------|--L----------------|-----5-----------8--------|
--3----------------|--L----------------|--3--------3--6--------6--|
-------------------|-------------------|--------------------------|


  E  E  E  E  E  E  E  E     E  E  E  E  E  E  E  E   
--------------------------|--------------------------|
--------------------------|--------------------------|
--------------------5-----|--------5-----------8-----|
--------8--------5--------|-----5-----------8--------|
-----8--------3--------3--|--3--------3--6--------6--|
--6--------6--------------|--------------------------|


  E  E  E  E  E  E  E  E     E  E  E  E  E  E  E  E   
--------------------------|--------------------------|
--------------------------|--------------------------|
--------------------5-----|--------5-----------8-----|
-----------------5--------|-----5-----------8--------|
-----6-----5--3--------3--|--3--------3--6--------6--|
--4-----3-----------------|--------------------------|


  E  E  E  E  E  E  E  E     E  E  E  E  E  E  E  E     E  E  E  E  E  E  Q     
--------------------------|--------------------------|-------------------------|
--------------------------|--------------------------|-------------------------|
--------------------5-----|--------5-----------8-----|--------------------5----|
--------8--------5--------|-----5-----------8--------|-----------------5-------|
-----8--------3--------3--|--3--------3--6--------6--|-----6-----5--3----------|
--6--------6--------------|--------------------------|--4-----3----------------|


          Q.     E   H           H        H           Q.     E   H         
-----||-----------------------|--------------------|----------------------|
-----||-----------------------|--------------------|----------------------|
-----||*--7------5--10--------|--5--------7--------|--7------5--10--------|
-----||*--7------5--10--------|--5--------7--------|--7------5--10--------|
-----||---5------3---8--------|--3--------5--------|--5------3---8--------|
-----||-----------------------|--------------------|----------------------|


  Q    Q    H             Q    Q    H         
----------------------||---------------------|
----------------------||---------------------|
------------7--------*||------------7--------|
--8----7----7--------*||--8----7----7--------|
--8----7----5---------||--8----7----5--------|
--6----5--------------||--6----5-------------|


    PM PM PM PM PM PM PM PM PM PM PM PM PM PM PM PM  
    S  S  S  S  S  S  S  S  S  S  S  S  S  S  S  S   
|---------------------------------------------------|
|---------------------------------------------------|
|*--------------------------------------------------|
|*--------------------7--7--------------------------|
|---2--2--2--2--2--2--5--5--5--5--5--5--5--5--5--5--|
|---0--0--0--0--0--0--------3--3--3--3--3--3--3--3--|


  PM PM PM PM PM PM PM PM PM PM PM PM PM PM PM PM  
  S  S  S  S  S  S  S  S  S  S  S  S  S  S  S  S   
--------------------------------------------------|
--------------------------------------------------|
--------------------------------------------------|
--7--7--7--7--7--7--7--7--------------------------|
--5--5--5--5--5--5--5--5--2--2--2--2--2--2--2--2--|
--------------------------0--0--0--0--0--0--0--0--|


  PM PM PM PM PM PM PM PM PM PM PM PM PM PM PM PM  
  S  S  S  S  S  S  S  S  S  S  S  S  S  S  S  S   
--------------------------------------------------|
--------------------------------------------------|
--------------------------------------------------|
--------------------7--7--------------------------|
--2--2--2--2--2--2--5--5--5--5--5--5--5--5--5--5--|
--0--0--0--0--0--0--------3--3--3--3--3--3--3--3--|


  PM PM PM PM PM PM PM PM PM PM PM PM PM PM PM PM                            
  S  S  S  S  S  S  S  S  S  S  S  S  S  S  S  S        Q.     E   H         
---------------------------------------------------||-----------------------|
---------------------------------------------------||-----------------------|
--------------------------------------------------*||*--7------5--10--------|
--5--5--5--5--4--4--4--4--------------------------*||*--7------5--10--------|
--3--3--3--3--2--2--2--2--2--2--2--2--2--2--2--2---||---5------3---8--------|
--------------------------0--0--0--0--0--0--0--0---||-----------------------|


  H        H           Q.     E   H           Q    Q    H           
--------------------|----------------------|----------------------||
--------------------|----------------------|----------------------||
--5--------7--------|--7------5--10--------|------------7--------*||
--5--------7--------|--7------5--10--------|--8----7----7--------*||
--3--------5--------|--5------3---8--------|--8----7----5---------||
--------------------|----------------------|--6----5--------------||


  Q.     E   H           H        H           Q.     E   H         
----------------------|--------------------|----------------------|
----------------------|--------------------|----------------------|
--7------5--10--------|--5--------7--------|--7------5--10--------|
--7------5--10--------|--5--------7--------|--7------5--10--------|
--5------3---8--------|--3--------5--------|--5------3---8--------|
----------------------|--------------------|----------------------|


  Q    Q    H          
---------------------||
---------------------||
------------7--------||
--8----7----7--------||
--8----7----5--------||
--6----5-------------||




Guitar 3


E||-------|-------|-------|-------|-------|-------|-------|-------|-------|
B||-------|-------|-------|-------|-------|-------|-------|-------|-------|
G||-------|-------|-------|-------|-------|-------|-------|-------|-------|
D||-------|-------|-------|-------|-------|-------|-------|-------|-------|
A||-------|-------|-------|-------|-------|-------|-------|-------|-------|
E||-------|-------|-------|-------|-------|-------|-------|-------|-------|


-------|-------|-------|-------|-------|-------|-------|-------|-------|-------|
-------|-------|-------|-------|-------|-------|-------|-------|-------|-------|
-------|-------|-------|-------|-------|-------|-------|-------|-------|-------|
-------|-------|-------|-------|-------|-------|-------|-------|-------|-------|
-------|-------|-------|-------|-------|-------|-------|-------|-------|-------|
-------|-------|-------|-------|-------|-------|-------|-------|-------|-------|


                                            Q.      E  E  E   Q      
-------|-------|-------|-------|-------||---------------------------|
-------|-------|-------|-------|-------||--------------8--9--11~----|
-------|-------|-------|-------|-------||*--5~------7---------------|
-------|-------|-------|-------|-------||*--------------------------|
-------|-------|-------|-------|-------||---------------------------|
-------|-------|-------|-------|-------||---------------------------|


  E  E  E  E  H            Q.      E  E  E   Q        E  E  E  E  H            
------------------------|--------------------------|-------------------------||
--6-----------4~--------|-------------8--9--11~----|--6-----8--8-------------||
-----7-----7------------|--5~------7---------------|-----8--------5~--------*||
--------8---------------|--------------------------|------------------------*||
------------------------|--------------------------|-------------------------||
------------------------|--------------------------|-------------------------||


  E  E  E  E  H                                                          
------------------------|-------|-------|-------|-------|-------|-------|
--6-----8--8------------|-------|-------|-------|-------|-------|-------|
-----8--------5~--------|-------|-------|-------|-------|-------|-------|
------------------------|-------|-------|-------|-------|-------|-------|
------------------------|-------|-------|-------|-------|-------|-------|
------------------------|-------|-------|-------|-------|-------|-------|


-------|-------|-------|-------|-------|-------|-------|-------|-------|-------|
-------|-------|-------|-------|-------|-------|-------|-------|-------|-------|
-------|-------|-------|-------|-------|-------|-------|-------|-------|-------|
-------|-------|-------|-------|-------|-------|-------|-------|-------|-------|
-------|-------|-------|-------|-------|-------|-------|-------|-------|-------|
-------|-------|-------|-------|-------|-------|-------|-------|-------|-------|


                            Q.      E  E  E   Q        E  E  E  E  H          
-------|-------|-------||---------------------------|------------------------|
-------|-------|-------||--------------8--9--11~----|--6-----------4~--------|
-------|-------|-------||*--5~------7---------------|-----7-----7------------|
-------|-------|-------||*--------------------------|--------8---------------|
-------|-------|-------||---------------------------|------------------------|
-------|-------|-------||---------------------------|------------------------|


  Q.      E  E  E   Q        E  E  E  E  H              E  E  E  E  H          
--------------------------|-------------------------||------------------------|
-------------8--9--11~----|--6-----8--8-------------||--6-----8--8------------|
--5~------7---------------|-----8--------5~--------*||-----8--------5~--------|
--------------------------|------------------------*||------------------------|
--------------------------|-------------------------||------------------------|
--------------------------|-------------------------||------------------------|


-------|-------|-----------|-----------|-----------|-----------|-----------|
-------|-------|-----------|-----------|-----------|-----------|-----------|
-------|-------|-----------|-----------|-----------|-----------|-----------|
-------|-------|-----------|-----------|-----------|-----------|-----------|
-------|-------|-----------|-----------|-----------|-----------|-----------|
-------|-------|-----------|-----------|-----------|-----------|-----------|


                                      Q.     E   Q    E  E   
-----------|-----------|-----------|------------------------|
-----------|-----------|-----------|--8------9--11----9--8--|
-----------|-----------|-----------|------------------------|
-----------|-----------|-----------|------------------------|
-----------|-----------|-----------|------------------------|
-----------|-----------|-----------|------------------------|


  Q.     E  H           Q.     E  Q    E  E     S S Q.     Q    S S S S  
---------------------|-----------------------|--------------------------|
--6------------------|---------6--8----6-----|--6-8-6------L----8-6-----|
---------8--7--------|--8-----------------8--|----------------------8-7-|
---------------------|-----------------------|--------------------------|
---------------------|-----------------------|--------------------------|
---------------------|-----------------------|--------------------------|


  Q.     E   Q    E  E     Q.     E  H           Q.     E  Q    E  E   
------------------------|---------------------|-----------------------|
--8------9--11----9--8--|--6------------------|---------6--8----6-----|
------------------------|---------8--7--------|--8-----------------8--|
------------------------|---------------------|-----------------------|
------------------------|---------------------|-----------------------|
------------------------|---------------------|-----------------------|


  S S Q    S S  E  E  T  T  S E     W                                         
---------------------------------|--8----------------|-----------|-----------|
--6-8-6----8-9-11--9--6h-8p-6----|-------------------|-----------|-----------|
------------------------------8--|-------------------|-----------|-----------|
---------------------------------|-------------------|-----------|-----------|
---------------------------------|-------------------|-----------|-----------|
---------------------------------|-------------------|-----------|-----------|


-----------|-----------|-----------|-----------|-----------|-----------|
-----------|-----------|-----------|-----------|-----------|-----------|
-----------|-----------|-----------|-----------|-----------|-----------|
-----------|-----------|-----------|-----------|-----------|-----------|
-----------|-----------|-----------|-----------|-----------|-----------|
-----------|-----------|-----------|-----------|-----------|-----------|


                            Q.      E   E   E   Q      
-----------|-----------||-----------------------------|
-----------|-----------||--------------10--11--13~----|
-----------|-----------||*--7~------9-----------------|
-----------|-----------||*----------------------------|
-----------|-----------||-----------------------------|
-----------|-----------||-----------------------------|


  E  E   E  E  H            Q.      E   E   E   Q      
-------------------------|----------------------------|
--8------------6~--------|-------------10--11--13~----|
-----9------9------------|--7~------9-----------------|
--------10---------------|----------------------------|
-------------------------|----------------------------|
-------------------------|----------------------------|


  E   E   E   E  H              E   E   E   E  H          
----------------------------||---------------------------|
--8------10--10-------------||--8------10--10------------|
-----10----------7~--------*||-----10----------7~--------|
---------------------------*||---------------------------|
----------------------------||---------------------------|
----------------------------||---------------------------|


    Q.       E   E   E   Q         E   E   E   E  H          
|------------------------------|----------------------------|
|---------------12--13--15~----|--10--------------8~--------|
|*--9~------11-----------------|------11------11------------|
|*-----------------------------|----------12----------------|
|------------------------------|----------------------------|
|------------------------------|----------------------------|


  Q.       E   E   E   Q         E   E   E   E  H            
-----------------------------|-----------------------------||
--------------12--13--15~----|--10------12--12-------------||
--9~------11-----------------|------12----------9~--------*||
-----------------------------|----------------------------*||
-----------------------------|-----------------------------||
-----------------------------|-----------------------------||


   Q.      E   E   E   Q        E  E   E  E  H          
-----------------------------|-------------------------|
--------------10--11--13~----|--8------------6~--------|
*--7~------9-----------------|-----9------9------------|
*----------------------------|--------10---------------|
-----------------------------|-------------------------|
-----------------------------|-------------------------|


  Q.      E   E   E   Q        E   E   E   E  H            
----------------------------|----------------------------||
-------------10--11--13~----|--8------10--10-------------||
--7~------9-----------------|-----10----------7~--------*||
----------------------------|---------------------------*||
----------------------------|----------------------------||
----------------------------|----------------------------||


  Q.      E   E   E   Q        E  E   E  E  H          
----------------------------|-------------------------|
-------------10--11--13~----|--8------------6~--------|
--7~------9-----------------|-----9------9------------|
----------------------------|--------10---------------|
----------------------------|-------------------------|
----------------------------|-------------------------|


  Q.      E   E   E   Q        E   E   E   E  H           
----------------------------|---------------------------||
-------------10--11--13~----|--8------10--10------------||
--7~------9-----------------|-----10----------7~--------||
----------------------------|---------------------------||
----------------------------|---------------------------||
----------------------------|---------------------------||




Keyboards


     Q    Q    Q    Q       Q.     E  H           H        H         
E||----------------------|---------------------|--------------------|
B||-----------------4----|---------------------|--------------------|
G||------------5----L----|--5------7--8--------|-----------5--------|
D||-------5---------L----|--5------7--8--------|--3--------5--------|
A||--3--------------L----|--3------5--6--------|--3--------3--------|
E||------------L---------|---------------------|--1-----------------|


  Q.     E  H           Q    Q    H           W                 
---------------------|---------------------|-------------------|
---------------------|---------------------|-------------------|
--5------7--8--------|------------5--------|--5----------------|
--5------7--8--------|--6----5----5--------|--5----------------|
--3------5--6--------|--6----5----3--------|--3----------------|
---------------------|--4----3-------------|-------------------|


  W                                   H        Q    Q       W                 
-------------------|-------|-------|---------------------|-------------------|
-------------------|-------|-------|--6--------4----3----|--1----------------|
--L----------------|-------|-------|---------------------|-------------------|
--L----------------|-------|-------|--3--------1----0----|-------------------|
--L----------------|-------|-------|---------------------|--3----------------|
-------------------|-------|-------|---------------------|-------------------|


                  H        Q    Q       W                   W                 
-------|-------|---------------------|-------------------|-------------------|
-------|-------|--6--------4----3----|--1----------------|-------------------|
-------|-------|---------------------|-------------------|-------------------|
-------|-------|--3--------1----0----|-------------------|--6----------------|
-------|-------|---------------------|--3----------------|--6----------------|
-------|-------|---------------------|-------------------|--4----------------|


  W                   W                   W                   W                 
-------------------|-------------------|-------------------|-------------------|
-------------------|-------------------|-------------------|-------------------|
-------------------|-------------------|-------------------|-------------------|
--L----------------|--5----------------|--L----------------|--6----------------|
--L----------------|--3----------------|--L----------------|--6----------------|
--L----------------|-------------------|-------------------|--4----------------|


  W                                   H        H         
-------------------|-------|-------|--------------------|
-------------------|-------|-------|--------------------|
-------------------|-------|-------|--8--------7--------|
--L----------------|-------|-------|--8--------8--------|
--L----------------|-------|-------|--6--------5--------|
--L----------------|-------|-------|--------------------|


    Q.     E  H           H        H           Q.     E  H         
|----------------------|--------------------|---------------------|
|----------------------|--------------------|---------------------|
|*--5------3--8--------|--3--------5--------|--5------3--8--------|
|*--5------3--8--------|--3--------5--------|--5------3--8--------|
|---3------1--6--------|--1--------3--------|--3------1--6--------|
|----------------------|--------------------|---------------------|


  Q    Q    H             Q    Q    H           W                 
----------------------||---------------------|-------------------|
----------------------||---------------------|-------------------|
------------5--------*||------------5--------|--5----------------|
--6----5----5--------*||--6----5----5--------|--5----------------|
--6----5----3---------||--6----5----3--------|--3----------------|
--4----3--------------||--4----3-------------|-------------------|


  W                                   H        Q    Q       W                 
-------------------|-------|-------|---------------------|-------------------|
-------------------|-------|-------|--6--------4----3----|--1----------------|
--L----------------|-------|-------|---------------------|-------------------|
--L----------------|-------|-------|--3--------1----0----|-------------------|
--L----------------|-------|-------|---------------------|--3----------------|
-------------------|-------|-------|---------------------|-------------------|


                  H        Q    Q       W                   W                 
-------|-------|---------------------|-------------------|-------------------|
-------|-------|--6--------4----3----|--1----------------|-------------------|
-------|-------|---------------------|-------------------|-------------------|
-------|-------|--3--------1----0----|-------------------|--6----------------|
-------|-------|---------------------|--3----------------|--6----------------|
-------|-------|---------------------|-------------------|--4----------------|


  W                   W                   W                   W                 
-------------------|-------------------|-------------------|-------------------|
-------------------|-------------------|-------------------|-------------------|
-------------------|-------------------|-------------------|-------------------|
--L----------------|--5----------------|--L----------------|--6----------------|
--L----------------|--3----------------|--L----------------|--6----------------|
--L----------------|-------------------|-------------------|--4----------------|


  W                                   H        H         
-------------------|-------|-------|--------------------|
-------------------|-------|-------|--------------------|
-------------------|-------|-------|--8--------7--------|
--L----------------|-------|-------|--8--------8--------|
--L----------------|-------|-------|--6--------5--------|
--L----------------|-------|-------|--------------------|


    Q.     E  H           H        H           Q.     E  H         
|----------------------|--------------------|---------------------|
|----------------------|--------------------|---------------------|
|*--5------3--8--------|--3--------5--------|--5------3--8--------|
|*--5------3--8--------|--3--------5--------|--5------3--8--------|
|---3------1--6--------|--1--------3--------|--3------1--6--------|
|----------------------|--------------------|---------------------|


  Q    Q    H             Q    Q    H           W                 
----------------------||---------------------|-------------------|
----------------------||---------------------|-------------------|
------------5--------*||------------5--------|--5----------------|
--6----5----5--------*||--6----5----5--------|--5----------------|
--6----5----3---------||--6----5----3--------|--3----------------|
--4----3--------------||--4----3-------------|-------------------|


  W                   W                   W                 
-------------------|-------------------|-------------------|
-------------------|-------------------|-------------------|
--L----------------|-------------------|-------------------|
--L----------------|--5----------------|-------------------|
--L----------------|--3----------------|--5----------------|
-------------------|-------------------|--3----------------|


  H.           Q       H.           Q       W                 
--------------------|--------------------|-------------------|
--------------------|--------------------|-------------------|
--------------------|--------------------|-------------------|
--------------------|--------------------|--5----------------|
--6------------3----|--5------------8----|--3----------------|
--4------------1----|--3------------6----|-------------------|


  W                   H.           Q       H.           Q     
-------------------|--------------------|--------------------|
-------------------|--------------------|--------------------|
-------------------|--------------------|--------------------|
-------------------|--------------------|--------------------|
--5----------------|--6------------3----|--5------------8----|
--3----------------|--4------------1----|--3------------6----|


  W                   W                   H.           Q     
-------------------|-------------------|--------------------|
-------------------|-------------------|--------------------|
-------------------|-------------------|--------------------|
--5----------------|-------------------|--------------------|
--3----------------|--5----------------|--6------------3----|
-------------------|--3----------------|--4------------1----|


  H.           Q       W                   W                 
--------------------|-------------------|-------------------|
--------------------|-------------------|-------------------|
--------------------|-------------------|-------------------|
--------------------|--5----------------|-------------------|
--5------------8----|--3----------------|--5----------------|
--3------------6----|-------------------|--3----------------|


  H.           Q       H.           Q                       H        H         
--------------------|--------------------|-------|-------|--------------------|
--------------------|--------------------|-------|-------|--4--------8--------|
--------------------|--------------------|-------|-------|--5--------8--------|
--------------------|--------------------|-------|-------|--5--------8--------|
--6------------3----|--5------------8----|-------|-------|--3--------6--------|
--4------------1----|--3------------6----|-------|-------|--------------------|


  H        H           H        H           Q    Q    H         
--------------------|--------------------|---------------------|
--3--------4--------|--4--------8--------|------------4--------|
--3--------5--------|--5--------8--------|--5---------5--------|
--3--------5--------|--5--------8--------|--6----5----5--------|
--1--------3--------|--3--------6--------|--6----5----3--------|
--------------------|--------------------|--4----3-------------|


  H        H           H        H           H        H         
--------------------|--------------------|--------------------|
--4--------8--------|--3--------4--------|--4--------8--------|
--5--------8--------|--3--------5--------|--5--------8--------|
--5--------8--------|--3--------5--------|--5--------8--------|
--3--------6--------|--1--------3--------|--3--------6--------|
--------------------|--------------------|--------------------|


  Q    Q    H                     Q.     E   H           H        H         
---------------------|-------||-----------------------|--------------------|
------------4--------|-------||-----------------------|--------------------|
--5---------5--------|-------||*--7------5--10--------|--5--------7--------|
--6----5----5--------|-------||*--7------5--10--------|--5--------7--------|
--6----5----3--------|-------||---5------3---8--------|--3--------5--------|
--4----3-------------|-------||-----------------------|--------------------|


  Q.     E   H           Q    Q    H             Q    Q    H         
----------------------|----------------------||---------------------|
----------------------|----------------------||---------------------|
--7------5--10--------|------------7--------*||------------7--------|
--7------5--10--------|--8----7----7--------*||--8----7----7--------|
--5------3---8--------|-------7----5---------||-------7----5--------|
----------------------|--6----5--------------||--6----5-------------|


    Q.     E   H           H        H           Q.     E   H         
|-----------------------|--------------------|----------------------|
|---8------7--12--------|--7--------8--------|--8------7--12--------|
|*--9------7--12--------|--7--------9--------|--9------7--12--------|
|*--9------7--12--------|--7--------9--------|--9------7--12--------|
|---7------5--10--------|--5--------7--------|--7------5--10--------|
|-----------------------|--------------------|----------------------|


   Q    Q    H              Q.     E   H           H        H         
-----------------------||-----------------------|--------------------|
-------------8---------||-----------------------|--------------------|
---9----4----9--------*||*--7------5--10--------|--5--------7--------|
--10----9----9--------*||*--7------5--10--------|--5--------7--------|
--10----9----7---------||---5------3---8--------|--3--------5--------|
---8----7--------------||-----------------------|--------------------|


  Q.     E   H           Q    Q    H             Q.     E   H         
----------------------|----------------------||----------------------|
----------------------|----------------------||----------------------|
--7------5--10--------|------------7--------*||--7------5--10--------|
--7------5--10--------|--8----7----7--------*||--7------5--10--------|
--5------3---8--------|-------7----5---------||--5------3---8--------|
----------------------|--6----5--------------||----------------------|


  H        H           Q.     E   H           Q    Q    H          
--------------------|----------------------|---------------------||
--------------------|----------------------|---------------------||
--5--------7--------|--7------5--10--------|------------7--------||
--5--------7--------|--7------5--10--------|--8----7----7--------||
--3--------5--------|--5------3---8--------|-------7----5--------||
--------------------|----------------------|--6----5-------------||




Duration Legend
---------------
W - whole
H - half
Q - quarter
E - 8th
S - 16th
T - 32nd
X - 64th
. - note dotted
|-n-|  - n-tuplets


Tablature Legend
----------------
L - tied note
x - dead note
g - grace note
(n) - ghost note
> - accentuded note
NH - natural harmonic
AH - artificial harmonic
TH - tapped harmonic
SH - semi harmonic
PH - pitch harmonic
h - hammer on
p - pull off
b - bend
br - bendRelease
pb - preBend
pbr - preBendRelease
brb - bendReleaseBend
\n/ - tremolo bar dip
\n - tremolo bar dive
-/n - tremolo bar Release up
/n\ - tremolo bar inverted dip
/n - tremolo bar return
-\n - tremolo bar Release down
S - shift slide
s - legato slide
/ -  slide into from below or out of upwards
\ -  slide into from above or out of downwards
~ - vibrato
W - wide vibrato
tr - trill
TP - tremolo picking
T - tapping
S - slap
P - pop
< - fade in
^ - brush up
v - brush down

            
            
Suggest correction
Creating personal tab
Creating personal tab
You can edit any tab online and save it as your Personal.

You can edit, replace or remove any tab part or add personal notes – all changes will be seen only by you.

Personal tabs can be accessed anytime from any device, even offline.
Learn more »
Give kudos to tab author, rate the tab!
1 2 3 4 5
comments
print report bad tab
guest
You may want to rate the tab now too:
select rating
Wanna post a correction for this tab? Suggest correction