Oops, an error
Loading. Please wait.

Silver tab

364 views 1 this week
no commentswrite comment
1 2 3 4 5
3 more votes to show rating
add to favorites
×
Save as Personal and add changes to this tab that will be seen only by you. Learn more ›
×
You can save this tab as Personal to edit and correct it or add notes. All changes will be seen only by you. Learn more »
launch autoscroll
font size
0
reset
how to read this tab
guitar tuner
edit
Autoscroll
slow
fast
+/-
esc
set tempo
stop
Author
to the admins:

Metal Molly doesn't have an official site but here's a link to their cd at amazon

http://www.amazon.com/Metal-Molly/artist/B000APTLYG/002-5442963-5104064

____________________________________________________________________________

Song: Silver
Artist: Metal Molly
Album: Surgery for Zebra
Year: 1996

Tabbed by: andback@gmail.com


Here's a great song by Metal Molly from their debut cd Surgery for Zebra.
This isn't 100% accurate but it's pretty close and sounds great while singing.
Listen to the song to find out the tempo.



Intro / Bridge:

e|-------------------3---2h3p2--------| x3
B|----3--------------3---3-----3------|
G|------2-----2----2---2--------------|
D|-0------4-0-------------------------|
A|------------------------------------|
E|--------------3---------------------|

e|--------------------3-3-3-3-3-3-3---|
B|----3---------------0-0-0-0-0-0-0---|
G|------2-----2-------0-0-0-0-0-0-0---|
D|-0------4-0---------0-0-0-0-0-0-0---|
A|--------------------2-2-2-2-2-2-2---|
E|--------------3-----3-3-3-3-3-3-3---|


Verse 1:

e|-------------------3---2h3p2-----------------------3---2h3p2--------|
B|----3--------------3---3-----3------3--------------3---3-----3------|
G|------2-----2----2---2----------------2-----2----2---2--------------|
D|-0------4-0----------------------0------4-0-------------------------|
A|--------------------------------------------------------------------|
E|--------------3-------------------------------3---------------------|

   It ain't what you think it is | Covered up in silver

e|-------------------3---2h3p2-------------------------0----------0-0-0-0-0-0-0---|
B|----3--------------3---3-----3------3--------------3----3---3---3-3-3-3-3-3-3---|
G|------2-----2----2---2----------------2-----2----1--------1-----1-1-1-1-1-1-1---|
D|-0------4-0----------------------0------4-0---------------------0-0-0-0-0-0-0---|
A|----------------------------------------------------------------2-2-2-2-2-2-2---|
E|--------------3-------------------------------3-----------------x-x-x-x-x-x-x---|

   Always gives me shivers    |    Despite all she lingers on


Verse 2:

e|-------------------3---2h3p2-----------------------3---2h3p2--------|
B|----3--------------3---3-----3------3--------------3---3-----3------|
G|------2-----2----2---2----------------2-----2----2---2--------------|
D|-0------4-0----------------------0------4-0-------------------------|
A|--------------------------------------------------------------------|
E|--------------3-------------------------------3---------------------|

   In her limestone mansion  |  She thinks she's very handsome

e|---------------------0---------------------------3------------------|
B|----3--------------3----0---0-------3------------3------------------|
G|------2-----2----1--------1-----------2-----2-----------------------|
D|-0------4-0----------------------0------4-0-------------------------|
A|--------------------------------------------------------------------|
E|--------------3-------------------------------3---------------------|

 I know that I can't have so-ome | I know they often kids done


Chorus:

D             G                 Bm       E 
   She found silver, she found that, tha-at

D            G           Bm       E
   Feel it slipper in my head, he-ead

D             G                 Bm       E
   She found silver, she found that, tha-at

D             G          Bm         E
   Feel it slipper in my hey-ey-ey-head


Bridge


Verse 3:
 
e|-------------------3---2h3p2-----------------------3---2h3p2--------|
B|----3--------------3---3-----3------3--------------3---3-----3------|
G|------2-----2----2---2----------------2-----2----2---2--------------|
D|-0------4-0----------------------0------4-0-------------------------|
A|--------------------------------------------------------------------|
E|--------------3-------------------------------3---------------------|

She looks through a different angle | She sees a triangle

e|---------------------0------------------------------3-3-3-3-3-3-3---|
B|----3--------------3----3---3-------3---------------0-0-0-0-0-0-0---|
G|------2-----2----1--------1-----------2-----2-------0-0-0-0-0-0-0---|
D|-0------4-0----------------------0------4-0---------0-0-0-0-0-0-0---|
A|----------------------------------------------------2-2-2-2-2-2-2---|
E|--------------3-------------------------------3-----3-3-3-3-3-3-3---|

Think they all start mangling thoughts | I don't care a fuck, but they do a lot

Verse 4: 

e|-------------------3---2h3p2-----------------------3---2h3p2--------|
B|----3--------------3---3-----3------3--------------3---3-----3------|
G|------2-----2----2---2----------------2-----2----2---2--------------|
D|-0------4-0----------------------0------4-0-------------------------|
A|--------------------------------------------------------------------|
E|--------------3-------------------------------3---------------------|

   Cover it up in silver     |     She still gives me shivers

e|---------------------0----------------------------------------------|
B|----3--------------3----3---3-------3---------3---------------------|
G|------2-----2----1--------1-----------2-----2-----------------------|
D|-0------4-0----------------------0------4-0-------------------------|
A|--------------------------------------------------------------------|
E|--------------3-------------------------------3---------------------|
   
   I don't really care what she thinks | Probably only futile things


Chorus


Bridge


Verse 5:

e|-------------------3---2h3p2-----------------------3---2h3p2--------|
B|----3--------------3---3-----3------3--------------3---3-----3------|
G|------2-----2----2---2----------------2-----2----2---2--------------|
D|-0------4-0----------------------0------4-0-------------------------|
A|--------------------------------------------------------------------|
E|--------------3-------------------------------3---------------------|

   It ain't what you think it is | Covered up in silver

e|-------------------3---2h3p2-------------------------0--------------|
B|----3--------------3---3-----3------3--------------3----------------|
G|------2-----2----2---2----------------2-----2----1------------------|
D|-0------4-0----------------------0------4-0-------------------------|
A|--------------------------------------------------------------------|
E|--------------3-------------------------------3---------------------|

   Always gives me shivers    |    Despite all she lingers on


That's it!

e-mail me if you've got any questions or corrections.

            
            
Suggest correction
Creating personal tab
Creating personal tab
You can edit any tab online and save it as your Personal.

You can edit, replace or remove any tab part or add personal notes – all changes will be seen only by you.

Personal tabs can be accessed anytime from any device, even offline.
Learn more »
Give kudos to tab author, rate the tab!
1 2 3 4 5
comments
print report bad tab
guest
You may want to rate the tab now too:
select rating
Wanna post a correction for this tab? Suggest correction