Oops, an error
Loading. Please wait.
We have an official Aint My Bitch tab made by UG professional guitarists. Check out the tab »
×
65,987 views 60 this week
7 commentsread comments
1 2 3 4 5
x 16
add to favorites
×
Save as Personal and add changes to this tab that will be seen only by you. Learn more ›
×
You can save this tab as Personal to edit and correct it or add notes. All changes will be seen only by you. Learn more »
launch autoscroll
font size
0
reset
how to read this tab
guitar tuner
backing track
0:00
0:00
edit
Autoscroll
slow
fast
+/-
esc
set tempo
stop
Author
[Intro]
e|----------|---------------------|---------------------------|
B|----------|---------------------|---------------------------|
G|----------|---------------------|---------------------------|
D|----------|--------5------------|---------------------------|
A|---5---7--|--------5------5--6--|--7--7--7---7---7----7--5--|
E|---0---0--|----0---3------0--0--|--0--0--0---0---0----0--0--|

e|------------------------|----------------------|---------------------|
B|------------------------|----------------------|---------------------|
G|---------~~~~~----------|----------------------|---------------------|
D|--------5---------------|----------------------|--------5------------|
A|--7--7--------7---7--5--|--7--7--7---7---5--7--|--------5------5--6--|
E|--0--0--------0---0--0--|--0--0--0---0---0--0--|----0---3------0--0--|

e|---------------------------|------------------------|----------------------|
B|---------------------------|------------------------|----------------------|
G|---------------------------|---------~~~~~----------|----------------------|
D|---------------------------|--------5---------------|----------------------|
A|--7--7--7---7---7----7--5--|--7--7--------7---7--5--|--7--7--7---7---5--7--|
E|--0--0--0---0---0----0--0--|--0--0--------0---0--0--|--0--0--0---0---0--0--|

[Rhy Fig 1]
e|---------------------|--------------------------|-------------------------|
B|---------------------|--------------------------|-------------------------|
G|---------------------|--------------------------|-------------------------|
D|--------5------------|--------------------------|--------5~-~-------------|
A|--------5------5--6--|--7--7--7-----7-----7--5--|--7--7-------7-----7--5--|
E|----0---3------0--0--|--0--0--0--0--0--0--0--0--|--0--0-------0--0--0--0--|

[End Rhy Fig 1]
e|--------------------------|---------------------|
B|--------------------------|---------------------|
G|--------------------------|---------------------|
D|--------------------------|--------5------------|
A|--7--7--7-----7-----5--7--|--------5------5--6--|
E|--0--0--0--0--0--0--0--0--|--0--0--3------0--0--|

[w/ Rhy Fig 1] (2x)
e|--------------------------|-------------------------|
B|--------------------------|-------------------------|
G|--------------------------|-------------------------|
D|--------------------------|--------5~-~-------------|
A|--7--7--7-----7-----7--5--|--7--7-------7-----7--5--|
E|--0--0--0--0--0--0--0--0--|--0--0-------0--0--0--0--|

e|--------------------------|---------------------|
B|--------------------------|---------------------|
G|--------------------------|---------------------|
D|--------------------------|--------5------------|
A|--7--7--7-----7-----5--7--|--------5------5--7--|
E|--0--0--0--0--0--0--0--0--|--0--0--3------------|

e|-------------------------------|--------------------------------|
B|-------------------------------|--------------------------------|
G|--------------1/4 Bend---------|--------------1/4 Bend----------|
D|--5------7-------5-------------|--5------7-------5--------------|
A|-----7-------7------7---5---7--|-----7-------7-------7---5---7--|
E|-------------------------------|--------------------------------|

e|-------------------------------|----------------------|
B|-------------------------------|----------------------|
G|--------------1/4 Bend---------|----------------------|
D|--5------7-------5-------------|--5------5~-~-~-------|
A|-----7-------7------7---5---7--|-----7----------5--7--|
E|-------------------------------|----------------------|

e|-------------------------------|----------------------------------|
B|-------------------------------|---------------1/4 Bend-----------|
G|--------------1/4 Bend---------|--12------14------12--------------|
D|--5------7-------5-----12--14--|------14------14------14--12--14--|
A|-----7-------7------7----------|----------------------------------|
E|-------------------------------|----------------------------------|

e|----------------------------------|---------------------|
B|----------14---1/4 Bend-----------|----------12b14------|
G|--12------14------12--------------|--12------12b13------|
D|------14------14------14--12--14--|------14-------------|
A|----------------------------------|---------------------|
E|----------------------------------|---------------------|

[Verse]
e|--------------------------------------------------|
B|--------------------------------------------------|
G|--------------------------------------------------| 
D|--------------------------------------------------|
A|---5--6--7---7---7---7------7------7---5---7---7--|
E|---0--0--0---0---0---0------0------0---0---0---0--|
Outta my way....

e|--------------------------------------------------------------------------|
B|--------------------------------------------------------------------------|
G|--~~~~~-------------------------------------------------------------------|
D|--5----------------------------------------------------------------5------|
A|---------7------7---5----7----7----7------7------5----7------------5------|
E|---------0------0---0----0----0----0------0------0----0--------0---3------|

e|--------------------------------------------------|
B|--------------------------------------------------| 
G|--------------------------------------------------|
D|---5--6--7---7---7---7------7------7---5---7---7--|
A|---0--0--0---0---0---0------0------0---0---0---0--|
E|--------------------------------------------------|
Head strong.... 

e|--------------------------------------------------------------------------|
B|--~~~~~-------------------------------------------------------------------|
G|--5-----------------------------------------------------------------------|
D|---------7------7---5----7----7----7------7------5----7------------5------|
A|---------0------0---0----0----0----0------0------0----0--------0---5------|
E|-------------------------------------------------------------------3------|

e|------------------------------------------------------------------|
B|------------------------------------------------------------------|
G|------------------------------------------------------------------|
D|---2--------------------------------------------------------------|
A|---2--------------------------------------------------------------|
E|---0--------------------------------------------------------------|
You arrived....

e|-------------------------------------------------------------|
B|-------------------------------------------------------------|
G|-------------------------------------------------------------|
D|------------2--2--2--2--2--2--2--2--2--2--2--2--2--2--2--2---|
A|------------2--2--2--2--2--2--2--2--2--2--2--2--2--2--2--2---|
E|------------0--0--0--0--0--0--0--0--0--0--0--0--0--0--0--0---|
goodbye...

[Chorus]
e|-----------------------------------------------------------------------|
B|-----------------------------------------------------------------------|
G|----4------------------2-----------------------------------------------|
D|----4------------------2--------------------5--------------------------|
A|----2------------------0--------------------5---------------5---4---3--|
E|--------------------------------------------3---------------3---2---1--|
Draggin me... 

e|---------------------------------------------------------------------------|
B|---------------------------------------------------------------------------|
G|---------------------------------------------------------------------------|
D|---------------------------------------------------------------------------|
A|---------------------------------------------------------------------------|
E|-0--0--0--0--3p0--0--0--0--0--3p0--0--0--3p0--0--0--0--0--3p0--0--0--3p0---|
So useless....

e|--------------0------------------0--------------------0--------------------|
B|----------0------------------0--------------------0------------------------|
G|----4------------------2---------------------------------------------------|
D|----4------------------2--------------------5------------------------------|
A|----2------------------0--------------------5---------------5---4---3---2--|
E|--------------------------------------------3---------------3---2---1---0--|
It ain't my fall....

[Before solo]
(variation of above)
e|-------------------------------------|
B|-------------------------------------|
G|-----------------Full--1/4Bend-------|
D|----------5---7---7------5-----------|
A|--5---7----------------------7-------|
E|-------------------------------------|

[Guitar Solo]
(w/ slide)
e|--------------|---------------------------|-----------------------------|
B|--------------|------------/sl\-----------|------------------/sl\----11-|
G|--4/-----sl---|--/11------11---9------11--|--(11)-~--(11)-\-9---11------|
D|--4/-----sl---|--/11--------------11------|-----------------------------|
A|--------------|---------------------------|-----------------------------|
E|--------------|---------------------------|-----------------------------|

e|-----------------------------|-----------------|---------14--------------14------
B|-(11)--(11)\----/11--12--13--|-/14----------14-|-12--14------14--12--14------14\-
G|-(11)--(11)\-----------------|-----------------|---------------------------------
D|-----------------------------|-----------------|---------------------------------
A|-----------------------------|-----------------|---------------------------------
E|-----------------------------|-----------------|---------------------------------

e|----------14--------------14----|----------14--------------14----|
B|-\12--14-----14--12--14------14-|-12--14------14--12--14---------|
G|--------------------------------|--------------------------------|
D|--------------------------------|--------------------------------|
A|--------------------------------|--------------------------------|
E|--------------------------------|--------------------------------|

e|--14/------------/17-~----(17)\--|-------16-~--------16--------|
B|--14/----------------------------|--/16-------16-~-~-----16-~--|
G|---------------------------------|-----------------------------|
D|---------------------------------|-----------------------------|
A|---------------------------------|-----------------------------|
E|---------------------------------|-----------------------------|

e|--------16--------16------|-/19-------------------|-------------------|
B|--16-~-----16-~------16\--|------19\--------/12-~-|-(12)-~-----(12)\--|
G|--------------------------|------------/9\--------|-------------------|
D|--------------------------|-----------------------|-------------------|
A|--------------------------|-----------------------|-------------------|
E|--------------------------|-----------------------|-------------------|

e|------------------|-----------11--14-~-~---(14)\--|
B|-/7---5----9--7---|---12--11----------------------|
G|------------------|-------------------------------|
D|------------------|-------------------------------|
A|------------------|-------------------------------|
E|------------------|-------------------------------|

e|------------------|-----------11--14----14\--/19\--|
B|--/7---5---9--7---|--12--11------------------------|
G|------------------|--------------------------------|
D|------------------|--------------------------------|
A|------------------|--------------------------------|
E|------------------|--------------------------------|

[let ring]
e|--/19--(19)-~-~--|--(19)-~-----(19)\--|-/19\----/12\----|----------------------------|
B|-----------------|--------------------|-----------------|-/12\----7/--sl--/9---------|
G|-----------------|--------------------|-----------------|---------7/--sl--/9---------|
D|-----------------|--------------------|-----------------|----------------------------|
A|-----------------|--------------------|-----------------|----------------------------|
E|-----------------|--------------------|-----------------|----------------------------|


************************************

| ~    Vibrato
| /    Slide up
| b    Bend
| p    Pull-off
| (n)  Ghost note
| \    Slide down

************************************

            
            
Suggest correction
Creating personal tab
Creating personal tab
You can edit any tab online and save it as your Personal.

You can edit, replace or remove any tab part or add personal notes – all changes will be seen only by you.

Personal tabs can be accessed anytime from any device, even offline.
Learn more »
comments
print report bad tab
7 comments total. Showing first comments. show 1 bad comment
+3 reply
c_ventura555 101 Apr 12, 2004 08:00 PM

dude this tab kicks ass

+4 reply
c_ventura555 101 Apr 13, 2004 08:00 PM

except that i hopr the tunning is 1/2 step down

guest
You may want to rate the tab now too:
select rating
Wanna post a correction for this tab? Suggest correction