Oops, an error
Loading. Please wait.
We have Chord Pro version of Atlas Rise.
It's the closest thing you can get to the original song and it has interactive parts. Check out the tab »
×

Atlas Rise bass

version 2
version 2

Whole song

  • Frist bass version, all song sections completed.
  • My version is standerd tuning no capo etc.

Interactive

1,000 views 6 this week
no commentswrite comment
1 2 3 4 5
2 more votes to show rating
add to favorites
×
Save as Personal and add changes to this tab that will be seen only by you. Learn more ›
×
You can save this tab as Personal to edit and correct it or add notes. All changes will be seen only by you. Learn more »
launch autoscroll
font size
0
reset
guitar tuner
backing track
0:00
0:00
edit
Autoscroll
slow
fast
+/-
esc
set tempo
stop
About this tab version
My version is standerd tuning no capo etc. Was this info helpful? Yes No
ATLAS..RISE!! hey guys another tab coming at you from the new album hope you all enjoi

G|-----------------------|
D|-----------------------|
A|-----------------------| x3
E|-5--0-0-5--5--0-0-5--5-|
B|-----------------------|

G|----------------------------------------------------------------------------------|
D|----------------------------------------------------------------------------------|
A|----------------------------------------------------------------------------------|
E|-5--0-0-5--5--5-6-5-3-1-0-----5--0-0-5--5--0-0-5--5--5--0-0-5--5--5-6-5-3-1-0-----|
B|--------------------------3-1-------------------------------------------------3-1-|

G|------------------------------------------------------------------------|
D|------------------------------------------------------------------------|
A|------------------------------------------------------------------------|
E|-5--0-0-5--5--0-0-5--5--5--0-0-5--5--5-6-5-3-1-0------5-6-5-3-1-0-----5-|
B|-------------------------------------------------3-1--------------3-1---|

G|------------------------------|
D|------------------------------|
A|------------------------------|
E|-5--0-0-5--5--0-0-5--5--0-0-5-|
B|------------------------------|

0:32
G|---------------------------------------------------------------|
D|---------------------------------------------------------------|
A|---------------------------------------------------------------| x3
E|-0-0-5-3-0-0-----0-0-6-5-3-0-3-5-3-0-0-0-0-0-0-0-0-0-1-0-0-0-5-|
B|-------------3-5-----------------------------------------------|

G|-----------------------------------|------------------------------|
D|-----------------------------------|------------------------------|
A|-----------------------------------|------------------------------|
E|-0-0-5-3-0-0-----0-0-6-5-3-0-3-5-3-|-5--0-0-5--5--0-0-5--5--0-0-5-|
B|-------------3-5-------------------|------------------------------|

G|---------------------------------------------------------------|
D|---------------------------------------------------------------|
A|---------------------------------------------------------------| x2
E|-0-0-0-0-0-0-0-0-0-0-0-0-0-0-0-0-0-0-0-0-0-0-0-0-0-0-1-0-1-0-5-|
B|---------------------------------------------------------------|

G|---------------------------------------------------------------|
D|---------------------------------------------------------------|
A|---------------------------------------------------------------|
E|-0-0-0-0-0-0-0-0-0-0-0-0-0-0-0-5-0-0-0-0-0-0-0-0-0-0-1-0-1-0-5-|
B|---------------------------------------------------------------|

G|-------------------------------------------------------------|
D|-------------------------------------------------------------|
A|-------------------------------------------------------------|
E|-0-0-0-0-0-0-0-0-0-0-0-0-0-0-0-5-0-0-0-0-0-0-0-0-0-0-0-0-3-5-|
B|-------------------------------------------------------------|

G|---------------------------------------------------------|
D|---------------------------------------------------------|
A|---------------------------------------------------------| x2
E|-6-0-0-0-0-0-0-0-0-0-0-0-0-6-5-6-0-0-0-0-0-0-0-0-0-0-3-5-|
B|---------------------------------------------------------|

1:24
G|-------------------------------------------------------------------------------------|
D|-------------------------------------------------------------------------------------|
A|-3-3-3-3------------2---------------2---------------2--------------------------------|
E|---------0---3--2-3---3-2-----3--2-3--3-2-0---3--2-3--3-2--0-0-2-0-3-------------0---|
B|--------------------------3------------------------------------------4-5-5-4-5-5-----|

G|-----------------------------------------------------------------------|
D|-----------------------------------------------------------------------|
A|--------2----------------2----------------2----------------------------|
E|-3--2-3---3-2-----3--2-3---3-2-----3--2-3---3-2--0-0-2-0-3-------------|
B|--------------3----------------0---------------------------4-5-5-4-5-5-|

G|---------------------------------------------------------------|
D|---------------------------------------------------------------|
A|---------------------------------------------------------------| x3
E|-0-0-5-3-0-0-----0-0-6-5-3-0-3-5-3-0-0-0-0-0-0-0-0-0-1-0-0-0-5-|
B|-------------3-5-----------------------------------------------|

G|-----------------------------------|------------------------------|
D|-----------------------------------|------------------------------|
A|-----------------------------------|------------------------------|
E|-0-0-5-3-0-0-----0-0-6-5-3-0-3-5-3-|-5--0-0-5--5--0-0-5--5--0-0-5-|
B|-------------3-5-------------------|------------------------------|

G|---------------------------------------------------------------|
D|---------------------------------------------------------------|
A|---------------------------------------------------------------| x2
E|-0-0-0-0-0-0-0-0-0-0-0-0-0-0-0-0-0-0-0-0-0-0-0-0-0-0-1-0-1-0-5-|
B|---------------------------------------------------------------|

G|---------------------------------------------------------------|
D|---------------------------------------------------------------|
A|---------------------------------------------------------------|
E|-0-0-0-0-0-0-0-0-0-0-0-0-0-0-0-5-0-0-0-0-0-0-0-0-0-0-1-0-1-0-5-|
B|---------------------------------------------------------------|

G|-------------------------------------------------------------|
D|-------------------------------------------------------------|
A|-------------------------------------------------------------|
E|-0-0-0-0-0-0-0-0-0-0-0-0-0-0-0-5-0-0-0-0-0-0-0-0-0-0-0-0-3-5-|
B|-------------------------------------------------------------|

G|---------------------------------------------------------|
D|---------------------------------------------------------|
A|---------------------------------------------------------| x2
E|-6-0-0-0-0-0-0-0-0-0-0-0-0-6-5-6-0-0-0-0-0-0-0-0-0-0-3-5-|
B|---------------------------------------------------------|

2:34
G|-------------------------------------------------------------------------------------|
D|-------------------------------------------------------------------------------------|
A|-3-3-3-3------------2---------------2---------------2--------------------------------|
E|---------0---3--2-3---3-2-----3--2-3--3-2-0---3--2-3--3-2--0-0-2-0-3-------------0---|
B|--------------------------3------------------------------------------4-5-5-4-5-5-----|

G|-----------------------------------------------------------------------------------------------------------|
D|-----------------------------------------------------------------------------------------------------------|
A|--------2----------------2----------------2----------------------------------------------------------------|
E|-3--2-3---3-2-----3--2-3---3-2-----3--2-3---3-2--0-0-2-0-3---------------------------0-0-2-0-3-------------|
B|--------------3----------------0---------------------------4-5-5-4-5-5--4-5-5-4-5-5------------4-5-5-4-5-5-|

G|--------------------------------------------------------------------------------------------------------|
D|--------------------------------------------------------------------------------------------------------|
A|--------2-------------2---------------------------2-------------2---------------------------------------|
E|-3--2-3---3-2--3--2-3---3-2--3--2-0-2------3--2-3---3-2--3--2-3---3-2--3--2-0-2-0-0-0-5-4--3-5-6----3-5-|
B|--------------------------------------5-3---------------------------------------------------------------|

G|----------------------------------------------------------------|
D|----------------------------------------------------------------|
A|----------------------------------------------------------------| x6
E|-0-0-0-0-0-0-0-0-0-0-0-0-6-5-3-5-0-0-0-0-0-0-0-0--3-0-3--3-5-3--| (solo break between repeat 4 and 5)
B|----------------------------------------------------------------|

3:41
G|---------------------------------|
D|---------------------------------|
A|-------------------------4-3-1-3-| x4
E|-3-3-3-3-3-3-3-3-3-3-3-3---------|
B|---------------------------------|

G|---------------------------------|
D|---------------------------------|
A|-------------------------3-2-0-2-| x4
E|-2-2-2-2-2-2-2-2-2-2-2-2---------|
B|---------------------------------|

G|----------------------------------------------------------------------------------------------|
D|----------------------------------------------------------------------------------------------|
A|------3-2-------3-2-0-2--------------------6-5-3-5--------------------------------------------|
E|-0-2-------0-2----------2---4-5-------4-5----------5---5-7--1-0----2------2-2------2-2------2-|
B|---------------------------------4-3----------------------------------0-0------0-0------0-0---|

G|--------------|
D|--------------|
A|--------------|
E|-0------0-----|
B|--------------|

4:22
G|-----------------------------------------------------------------|
D|-----------------------------------------------------------------|
A|-----------------------------------------------------------------|--|
E|-----------------------------------------------------------------|  |
B|-1-1-1-1-1-1-1-1-1-1-1-1-1-1-1-1-3-3-3-3-3-3-3-3-3-3-3-3-3-3-3-3-|  |
                                                                      |x2
G|-----------------------------------------------------------------|  |
D|-----------------------------------------------------------------|  |
A|-----------------------------------------------------------------|--|
E|-----------------------------------------------------------------|
B|-0-0-0-0-0-0-0-0-0-0-0-0-0-0-0-0-1-1-1-1-1-1-1-1-1-1-1-1-1-1-1-1-|

G|-----------------------------------------------------------------------------------------------|
D|-----------------------------------------------------------------------------------------------|
A|--------2-------------2---------------------------2-------------2------------------------------|
E|-3--2-3---3-2--3--2-3---3-2--3--2-0-2------3--2-3---3-2--3--2-3---3-2--3--2-0-2-0-0-0-5-4--3-5-|
B|--------------------------------------5-3------------------------------------------------------|

G|------------------------------|
D|------------------------------|
A|------------------------------|
E|-5--0-0-5--5--0-0-5--5--0-0-5-|
B|------------------------------|

4:53
G|---------------------------------------------------------------|
D|---------------------------------------------------------------|
A|---------------------------------------------------------------| x2
E|-0-0-0-0-0-0-0-0-0-0-0-0-0-0-0-0-0-0-0-0-0-0-0-0-0-0-1-0-1-0-5-|
B|---------------------------------------------------------------|

G|---------------------------------------------------------------|
D|---------------------------------------------------------------|
A|---------------------------------------------------------------|
E|-0-0-0-0-0-0-0-0-0-0-0-0-0-0-0-5-0-0-0-0-0-0-0-0-0-0-1-0-1-0-5-|
B|---------------------------------------------------------------|

G|-------------------------------------------------------------|
D|-------------------------------------------------------------|
A|-------------------------------------------------------------|
E|-0-0-0-0-0-0-0-0-0-0-0-0-0-0-0-5-0-0-0-0-0-0-0-0-0-0-0-0-3-5-|
B|-------------------------------------------------------------|

G|---------------------------------------------------------|
D|---------------------------------------------------------|
A|---------------------------------------------------------| x2
E|-6-0-0-0-0-0-0-0-0-0-0-0-0-6-5-6-0-0-0-0-0-0-0-0-0-0-3-5-|
B|---------------------------------------------------------|

5:23
G|-------------------------------------------------------------------------------------|
D|-------------------------------------------------------------------------------------|
A|-3-3-3-3------------2---------------2---------------2--------------------------------|
E|---------0---3--2-3---3-2-----3--2-3--3-2-0---3--2-3--3-2--0-0-2-0-3-------------0---|
B|--------------------------3------------------------------------------4-5-5-4-5-5-----|

G|-----------------------------------------------------------------------------------------------------------|
D|-----------------------------------------------------------------------------------------------------------|
A|--------2----------------2----------------2----------------------------------------------------------------|
E|-3--2-3---3-2-----3--2-3---3-2-----3--2-3---3-2--0-0-2-0-3---------------------------0-0-2-0-3-------------|
B|--------------3----------------0---------------------------4-5-5-4-5-5--4-5-5-4-5-5------------4-5-5-4-5-5-|

G|----------------------------------------------------------------|
D|----------------------------------------------------------------|
A|----------------------------------------------------------------| x2
E|-0-0-0-0-0-0-0-0-0-0-0-0-6-5-3-5-0-0-0-0-0-0-0-0--3-0-3--3-5-3--|
B|----------------------------------------------------------------|

5:58
G|-----------------------------------------------------------------------------------------------|
D|-----------------------------------------------------------------------------------------------|
A|------1-0-------1-0----------------------------------------------------------------------------|
E|---------------------5--0-0-5--5--0-0-5--5-6-5-3--5--0-0-5--5--5-6-5-3-1-0-----5-6-5-3-1-0-----|
B|-3-5-------3-5-------------------------------------------------------------3-1-------------3-1-|

G|--------------------------------|
D|--------------------------------|
A|--------------------------------| x4
E|-0-0-0-0--3-0-3--0-0-0-0--3-5-3-|
B|--------------------------------|

G|-----------------------------------|
D|-----------------------------------|
A|-----------------------------------|
E|-3--0-0-3--3--0-0-3--3--0-0-5----0-|
B|-----------------------------------|

And there you go atlas has risen great song off the new album let me know what u think waiting on a 
"making of" to peep anything I maybe have missed but this is as much as I could hear hope you guys like!

\m/MetallicaDMRTL\m/

            
            
Suggest correction
Creating personal tab
Creating personal tab
You can edit any tab online and save it as your Personal.

You can edit, replace or remove any tab part or add personal notes – all changes will be seen only by you.

Personal tabs can be accessed anytime from any device, even offline.
Learn more »
Give kudos to tab author, rate the tab!
1 2 3 4 5
comments
print report bad tab
guest
You may want to rate the tab now too:
select rating
Wanna post a correction for this tab? Suggest correction