Oops, an error
Loading. Please wait.
We have an official Battery tab made by UG professional guitarists. Check out the tab »
×

Battery tab

217 views 1 this week
no commentswrite comment
1 2 3 4 5
3 more votes to show rating
add to favorites
×
Save as Personal and add changes to this tab that will be seen only by you. Learn more ›
×
You can save this tab as Personal to edit and correct it or add notes. All changes will be seen only by you. Learn more »
launch autoscroll
font size
0
reset
how to read this tab
guitar tuner
backing track
0:00
0:00
edit
Autoscroll
slow
fast
+/-
esc
set tempo
stop
Author
Difficulty
About this tab version
This tab includes all four guitar tracs of the intro. It includes the palm muted E-notes of the outro, wich are missed in the other tabs of this song on UG. Was this info helpful? Yes No
Artist: Metallica
Song: Battery
Album: Master Of Puppets
Written by: Kirk Hammet, James Hetfeild, Lars Ulrich, Cliff Burton

Tuning: EADGBe (standard)

---------------------------------------------------------------------------------------
Tabulature Legend
---------------------------------------------------------------------------------------
 h   - hammer-on
 p   - pull-off
 b   - bend
 =   - hold bend (also acts as connecting device for hammers/pulls)
 PM  - palm muting
 LR  - let ring
 ~   - vibrato
 |*  - repeat x-times
 /   - slide up
 \   - slide down
 X   - dead note
 ()  - ghost note
 [n] - artificial harmonic, n=fret-number
---------------------------------------------------------------------------------------


Intro
Acoustic-Guitar (Nylon) 1
e| |-----------------------|----------------------|---------------------------|----------------------|
B| |-----------------------|----------------------|---------------------------|----------------------|
G|4|-----------------------|----------------------|---------------------------|----------------------|
D|/|--3p2-------2----------|--2-----0--5----------|--3p2-------2--------------|--2-----0--0----------|
A|4|--2(2)------0----------|--0--------5----------|--2(2)------0--------------|--0--------5----------|
E| |--0(0)------1----------|--2--------3----------|--0(0)------1--------------|--2--------3----------|
      LR......| LR........|            LR........|   LR......| LR............|            LR........|      

Acoustic-Guitar (Nylon) 1
e|-----------------------|----------------------|---------------------------|----------------------|
B|-----------------------|----------------------|---------------------------|----------------------|
G|-----------------------|----------------------|---------------------------|----------------------|
D|--3p2-------2----------|--2-----0--5----------|--3p2-------2--------------|--2-----0--0----------|
A|--2(2)------0----------|--0--------5----------|--2(2)------0--------------|--0--------5----------|
E|--0(0)------1----------|--2--------3----------|--0(0)------1--------------|--2--------3----------|
 |  LR......| LR........|            LR........|   LR......| LR............|            LR........|
 |
 |Acoustic-Guitar (Nylon) 2
e|-----------------------|----------------------|---------------------------|----------------------|
B|-----------------------|----------------------|---------------------------|----------------------|
G|------4-5-2~~-4--5-2~~-|----4-5-2-------5-4~~-|------4-5-2~~-4--4h5p4-2~~-|----4-5-2-------5-4~~-|
D|-----------------------|-----------5~~~-------|---------------------------|-----------5~~~-------|
A|-----------------------|----------------------|---------------------------|----------------------|
E|-----------------------|----------------------|---------------------------|----------------------|
 |
 |Acoustic-Guitar (Nylon) 3
e|-----------------------|----------------------|---------------------------|----------------------|
B|-----------------------|----------------------|------3-5-----3--3h5p3-----|----3-5---------5-3~~-|
G|-----------------------|----------------------|----------5~~----------5~~-|--------5--4----------|
D|-----------------------|----------------------|---------------------------|----------------------|
A|-----------------------|----------------------|---------------------------|----------------------|
E|-----------------------|----------------------|---------------------------|----------------------|

  Acoustic-Guitar (Nylon) 1
e|-----------------------|----------------------|---------------------------|----------------------|
B|-----------------------|----------------------|---------------------------|----------------------|
G|-----------------------|----------------------|---------------------------|----------------------|
D|--3p2-------2----------|--2-----0--5----------|--3p2-------2--------------|--2-----0--0----------|
A|--2(2)------0----------|--0--------5----------|--2(2)------0--------------|--0--------5----------|
E|--0(0)------1----------|--2--------3----------|--0(0)------1--------------|--2--------3----------|
 |  LR......| LR........|            LR........|   LR......| LR............|            LR........|
 |
 |Acoustic-Guitar (Nylon) 2
e|-----------------------|----------------------|---------------------------|----------------------|
B|-----------------------|----------------------|---------------------------|----------------------|
G|------4-5-2~~-4--5-2~~-|----4-5-2-------5-4~~-|------4-5-2~~-4--4h5p4-2~~-|----4-5-2-------5-4~~-|
D|-----------------------|-----------5~~~-------|---------------------------|-----------5~~~-------|
A|-----------------------|----------------------|---------------------------|----------------------|
E|-----------------------|----------------------|---------------------------|----------------------|
 |
 |Acoustic-Guitar (Nylon) 3
e|-----------------------|----------------------|---------------------------|----------------------|
B|------3-5-----3--5-----|----3-5---------5-3~~-|------3-5-----3--3h5p3-----|----3-5---------5-3~~-|
G|----------5~~------5~~-|--------5--4~~~-------|----------5~~----------5~~-|--------5--4~~~-------|
D|-----------------------|----------------------|---------------------------|----------------------|
A|-----------------------|----------------------|---------------------------|----------------------|
E|-----------------------|----------------------|---------------------------|----------------------|
 |
 |Acoustic-Guitar (Nylon) 4
e|------3-5-----3--5-----|----3-5---------5-3~~-|------3-5-----3--3h5p3-----|----3-5---------5-3~~-|
B|----------5~~------5~~-|--------5--4~~~-------|----------5~~----------5~~-|--------5--4~~~-------|
G|-----------------------|----------------------|---------------------------|----------------------|
D|-----------------------|----------------------|---------------------------|----------------------|
A|-----------------------|----------------------|---------------------------|----------------------|
E|-----------------------|----------------------|---------------------------|----------------------|

Distorted Electric-Guitars
    Guitar 1
e| |---------------------------|----------------------------||
B| *---------------------------|----------------------------*|
G|4|---------------------------|----------------------------||
D|x|--2-------------2----------|--2-------------5-----------||
A| *--2-------2--2--0----------|--0-------0--0--5-----------*|
E| |--0-------0--0--1----------|--2-------2--2--3-----------||
 |            PM.|  LR........|           PM.|  LR.........|
 |
 |  Guitar 2
e| |---------------------------|----------------------------||
B| *----4--5--2~~~--4---5--2~~~|----4--5--2----------5--4~~~*|
G|4|---------------------------|--------------5~~~----------||
D|x|---------------------------|----------------------------||
A| *---------------------------|----------------------------*|
E| |---------------------------|----------------------------||
 |      PM.|                        PM.|
 |
 |  Guitar 3
e| |---------------------------|----------------------------||
B| *----3--5--------3---5------|----3--5-------------5--3~~~*|
G|4|----------5~~~---------5~~~|----------5---4~~~----------||
D|x|---------------------------|----------------------------||
A| |---------------------------|----------------------------*|
E| |---------------------------|----------------------------||
 |      PM.|                        PM.|
 |
 |  Guitar 4
e| |----3--5--------3---5------|----3--5-------------5--3~~~||
B| *----------5~~~---------5~~~|----------5---3~~~----------*|
G|4|---------------------------|----------------------------||
D|x|---------------------------|----------------------------||
A| *---------------------------|----------------------------*|
E| |---------------------------|----------------------------||
        PM.|                        PM.|

Intro-End
Guitar 1 + 2
e|-------------------------------|
B|-------------------------------|
G|---------4---------------------|
D|--2------4------5--------------|
A|--2------2------5------6-------|
E|--0-------------3------2-------|

  Hetfield
e|----------------------------|----------------------------|
B|----------------------------|----------------------------|
G|----------------------------|----------------------------|
D|----------------------------|-------------------5--5--4/-|
A|-------------------8--8--7--|-------------------7--7--6/-|
E|--0--0-0-0--0-0-0--6--6--5--|--0--0-0-0- 0-0-0-----------|
 |  PM............|              PM............|
 |
 |Hammett
e|----------------------------|----------------------------|
B|----------------------------|----------------------------|
G|----------------------------|----------------------------|
D|--2-------------------------|----------------------------|
A|--2-------------------------|----------------------------|
E|--0-------------------------|----------------------------|


  Hetfield
e|----------------------------|----------------------------|
B|----------------------------|----------------------------|
G|----------------------------|----------------------------|
D|-/5-------------------------|----------------------------|
A|-/7----------------8--8--7--|-----4-----5-----5-----6----|
E|-----0-0-0--0-0-0--6--6--5--|--0--2-----3--0--3-----4----|
 |     PM.........|              PM          PM
 |
 |Hammett
e|----------------------------|----------------------------|
B|----------------------------|----------------------------|
G|----------------------------|----------------------------|
D|----------------------------|----------------------------|
A|----------------------------|----------------------------|
E|----------------------------|----------------------------|


  Hetfield
e|----------------------------|----------------------------|
B|----------------------------|----------------------------|
G|----------------------------|----------------------------|
D|----------------------------|-------------------5--5--4/-|
A|-------------------8--8--7--|-------------------7--7--6/-|
E|--0--0-0-0--0-0-0--6--6--5--|--0--0-0-0- 0-0-0-----------|
 |  PM............|              PM............|
 |
 |Hammett
e|----------------------------|---------------------------|
B|----------------------------|---------------------------|
G|----------------------------|---------------------------|
D|--2-------------------------|---------------------------|
A|--2----------------8--8--7--|--2------------------------|
E|--0----------------6--6--5--|--0------------------------|


  Hetfield
e|----------------------------|----------------------------|
B|----------------------------|----------------------------|
G|----------------------------|----------------------------|
D|-/5-------------------------|----------------------------|
A|-/7----------------8--8--7--|--8--7-----7-----7-----7----|
E|-----0-0-0--0-0-0--6--6--5--|--6--5-----5-----5-----5----|
 |     PM.........|
 |
 |Hammett
e|----------------------------|----------------------------|
B|----------------------------|----------------------------|
G|----------------------------|----------------------------|
D|----------------------------|----------------------------|
A|----------------------------|--8--7-----7-----7-----7----|
E|----------------------------|--6--5-----5-----5-----5----|


Guitar 1 + 2
e|----------------------------|----------------------------|
B|----------------------------|----------------------------|
G|----------------------------|----------------------------|
D|----------------------------|-------------------5--5--4/-|
A|-------------------8--8--7--|-------------------7--7--6/-|
E|--0--0-0-0--0-0-0--6--6--5--|--0--0-0-0- 0-0-0-----------|
    PM............|              PM............|

e|----------------------------|----------------------------|
B|----------------------------|----------------------------|
G|----------------------------|----------------------------|
D|-/5-------------------------|----------------------------|
A|-/7----------------8--8--7--|-----4-----5-----5-----6----|
E|-----0-0-0--0-0-0--6--6--5--|--0--2-----3--0--3-----4----|
       PM.........|              PM          PM


e|----------------------------|----------------------------|
B|----------------------------|----------------------------|
G|----------------------------|----------------------------|
D|----------------------------|-------------------5--5--4/-|
A|-------------------8--8--7--|-------------------7--7--6/-|
E|--0--0-0-0--0-0-0--6--6--5--|--0--0-0-0- 0-0-0-----------|
    PM............|              PM............|

e|----------------------------|----------------------------|
B|----------------------------|----------------------------|
G|----------------------------|----------------------------|
D|-/5-------------------------|----------------------------|
A|-/7----------------8--8--7--|--8--7-----7-----7-----7----|
E|-----0-0-0--0-0-0--6--6--5--|--6--5-----5-----5-----5----|
       PM.........|

e|---------------------|----------------------|---------------------|
B|---------------------|----------------------|---------------------|
G|---------------------|----------------------|---------------------|
D|--2------------------|--5-------------------|--7---------------4--|
A|--2------------------|--5-------------------|--7---------7--7--6--|
E|--0------------------|--3-------------------|--5---------0--0-----|
    LR................|   LR.................|             PM.|


Verse 1
e||----------------------------|----------------------------|
B|*----------------------------|----------------------------|
G||----------------------------|----------------------------|
D||--5-------------------------|-------------------5--5--4/-|
A|*--7----------------8--8--7--|-------------------7--7--6/-|
E||-----0-0-0--0-0-0--6--6--5--|--0--0-0-0- 0-0-0-----------|
        PM.........|              PM............|
     Lashingoutthe ac--tion,re- -turningthereac-  -tion.
     Hypno-ti--zingpo-  -wer,    crushingallthatco- -wer

e|----------------------------|----------------------------||
B|----------------------------|----------------------------*|
G|----------------------------|----------------------------||
D|-/5-------------------------|----------------------------||
A|-/7----------------8--8--7--|-----4-----5-----5-----6----*|
E|-----0-0-0--0-0-0--6--6--5--|--0--2-----3--0--3-----4----||
       PM.........|              PM          PM
   Weakare  rippedand torn a-   -way
   Ba-tte-ry  is  here to       stay

Chorus
e|---------------------|----------------------|---------------------|
B|---------------------|----------------------|---------------------|
G|---------------------|----------------------|---------------------|
D|--2------------------|--5-------------------|--7---------------4--|
A|--2------------------|--5-------------------|--7---------7--7--6--|
E|--0------------------|--3-------------------|--5---------0--0-----|
    LR................|   LR.................|             PM.|
   Smashing              Lu-na-cy has found me  Cannotstop
        throughthe                                     the Ba-   tte-
           boun--daries

e|----------------------------|----------------------------|
B|----------------------------|----------------------------|
G|----------------------------|----------------------------|
D|--5-------------------------|-------------------5--5--4/-|
A|--7----------------8--8--7--|-------------------7--7--6/-|
E|-----0-0-0--0-0-0--6--6--5--|--0--0-0-0- 0-0-0-----------|
       PM.........|              PM............|
   -ry

e|----------------------------|----------------------------|
B|----------------------------|----------------------------|
G|----------------------------|----------------------------|
D|-/5-------------------------|----------------------------|
A|-/7----------------8--8--7--|-----4-----5-----5-----6----|
E|-----0-0-0--0-0-0--6--6--5--|--0--2-----3--0--3-----4----|
       PM.........|              PM          PM

e|---------------------|----------------------|---------------------|
B|---------------------|----------------------|---------------------|
G|---------------------|----------------------|---------------------|
D|--2------------------|--5-------------------|--7---------------4--|
A|--2------------------|--5-------------------|--7---------7--7--6--|
E|--0------------------|--3-------------------|--5---------0--0-----|
    LR................|   LR.................|             PM.|
   Poun-ding out         Turnsin-to ob-ses-sion Can-not kill
              ag-gression                               the Bat--te-

e|----------------------------|----------------------------|
B|----------------------------|----------------------------|
G|----------------------------|----------------------------|
D|--5-------------------------|-------------------5--5--4--|
A|--7----------------8--8--7--|-------------------7--7--6--|
E|-----0-0-0--0-0-0--6--6--5--|--0--0-0-0- 0-0-0-----------|
       PM.........|              PM............|
   -ry

e|-------------------------------|---------------------------------|
B|-------------------------------|---------------------------------|
G|---------------4---------------|---------------------------------|
D|--2------------4---------------|--5---------------5-------4------|
A|--2------------2---------------|--5---------------7-------6------|
E|--0----------------------------|--3------------------------------|
    LR........|  LR............|    LR...........|                 
   Can-not kill                    Bat-te-ry is    foun-  -din
             the fa-mi-ly

e|----------------------------|----------------------------|
B|----------------------------|----------------------------|
G|----------------------------|----------------------------|
D|--5-------------------------|-------------------5--5--4/-|
A|--7----------------8--8--7--|-------------------7--7--6/-|
E|-----0-0-0--0-0-0--6--6--5--|--0--0-0-0- 0-0-0-----------|
       PM.........|              PM............|
   me

e| |---------------------------------| |----------------------------|----------------------------|
B| |---------------------------------| |----------------------------|----------------------------|
G|5|---------------------------------|4|----------------------------|----------------------------|
D|/|-/5------------------------------|/|----------------------------|-------------------5--5--4/-|
A|4|-/7----------------8--8--0--1----|4|-------------------8--8--7--|-------------------7--7--6/-|
E| |-----0-0-0--0-0-0--6--6--------1-| |--0--0-0-0--0-0-0--6--6--5--|--0--0-0-0- 0-0-0-----------|
         PM.........|        PM.........................|              PM............|
                               Bat-te-   -ry

e|----------------------------|----------------------------|
B|----------------------------|------------------R---------|
G|----------------------------|------------------E---------|
D|-/5-------------------------|------------------S---------|
A|-/7----------------8--8--7--|--8-----3-----2---T---------|
E|-----0-0-0--0-0-0--6--6--5--|--6-----1-----0-------------|
       PM.........|
                                 Bat- -te-  -ry

  Hetfield
e|-----------------------------------|-------------------------------------------------|
B|-----------------------------------|-------------------------------------------------|
G|-----------------------------------|-------------------------------------------------|
D|--2--------------------------------|--5----------------------------------------------|
A|--2--------------------------------|--5----------------------------------------------|
E|--0--------------------------------|--3----------------------------------------------|
 |  LR..............................|   LR...........................................|
 |
 |Hammett
e|-----12-17p12-15p12-14p12--12-17p12|15p12-14p12--12-17p12-15p12-14p12--12-17p12-15p12|
B|15b17--------------------15--------|-----------15--------------------15--------------|
G|-----------------------------------|-------------------------------------------------|
D|-----------------------------------|-------------------------------------------------|
A|-----------------------------------|-------------------------------------------------|
E|-----------------------------------|-------------------------------------------------|

  Hetfield                        Verse 2
e|-------------------------------|----------------------------|
B|-------------------------------|----------------------------|
G|-------------------------------|----------------------------|
D|--7------------------------4---|--5-------------------------|
A|--7------------------7--7--6---|--7----------------8--8--7--|
E|--5------------------0--0------|-----0-0-0--0-0-0--6--6--5--|
 | LR...............|  PM.|            PM.........|
 |                                 Crushingalldecei-  -vers, 
 |Hammett
e|-14p12-------------------------|----------------------------|
B|------14p12-14p12---------14b16|----------------------------|
G|-----------------14-12----14b16|--12------------------------|
D|-----------------------14------|----------------------------|
A|-------------------------------|----------------------------|
E|-------------------------------|----------------------------|

Guitar 1 + 2
e|----------------------------|----------------------------|----------------------------|
B|----------------------------|----------------------------|----------------------------|
G|----------------------------|----------------------------|----------------------------|
D|-------------------5--5--4/-|-/5-------------------------|----------------------------|
A|-------------------7--7--6/-|-/7----------------8--8--7--|-----4-----5-----5-----6----|
E|--0--0-0-0- 0-0-0-----------|-----0-0-0--0-0-0--6--6--5--|--0--2-----3--0--3-----4----|
    PM............|                 PM.........|             PM          PM
   Ma-shingnon-be-lie- -vers     Ne-ver en-ding po-  -ten-   -cy

e|----------------------------|----------------------------|
B|----------------------------|----------------------------|
G|----------------------------|----------------------------|
D|----------------------------|-------------------5--5--4/-|
A|-------------------8--8--7--|-------------------7--7--6/-|
E|--0--0-0-0--0-0-0--6--6--5--|--0--0-0-0- 0-0-0-----------|
    PM............|              PM............|
   Hun-gryviolencesee- -ker,    fee-dingoffthe wea- -ker

e|----------------------------|----------------------------|
B|----------------------------|----------------------------|
G|----------------------------|----------------------------|
D|-/5-------------------------|----------------------------|
A|-/7----------------8--8--7--|-----4-----5-----5-----6----|
E|-----0-0-0--0-0-0--6--6--5--|--0--2-----3--0--3-----4----|
       PM.........|              PM          PM
   Breedingon in--sa-  -ni-     -ty

Chorus
e|---------------------|----------------------|---------------------|
B|---------------------|----------------------|---------------------|
G|---------------------|----------------------|---------------------|
D|--2------------------|--5-------------------|--7---------------4--|
A|--2------------------|--5-------------------|--7---------7--7--6--|
E|--0------------------|--3-------------------|--5---------0--0-----|
    LR................|   LR.................|             PM.|
   Smashing              Lu-na-cy has found me  Cannotstop
        throughthe                                     the Ba-   tte-
           boun--daries

e|----------------------------|----------------------------|
B|----------------------------|----------------------------|
G|----------------------------|----------------------------|
D|--5-------------------------|-------------------5--5--4/-|
A|--7----------------8--8--7--|-------------------7--7--6/-|
E|-----0-0-0--0-0-0--6--6--5--|--0--0-0-0- 0-0-0-----------|
       PM.........|              PM............|
   -ry

e|----------------------------|----------------------------|
B|----------------------------|----------------------------|
G|----------------------------|----------------------------|
D|-/5-------------------------|----------------------------|
A|-/7----------------8--8--7--|-----4-----5-----5-----6----|
E|-----0-0-0--0-0-0--6--6--5--|--0--2-----3--0--3-----4----|
       PM-........|              PM          PM

e|---------------------|----------------------|---------------------|
B|---------------------|----------------------|---------------------|
G|---------------------|----------------------|---------------------|
D|--2------------------|--5-------------------|--7---------------4--|
A|--2------------------|--5-------------------|--7---------7--7--6--|
E|--0------------------|--3-------------------|--5---------0--0-----|
    LR................|   LR.................|             PM.|
   Poun-ding out         Turnsin-to ob-ses-sion Can-not kill
              ag-gression                               the Bat--te-

e|----------------------------|----------------------------|
B|----------------------------|----------------------------|
G|----------------------------|----------------------------|
D|--5-------------------------|-------------------5--5--4--|
A|--7----------------8--8--7--|-------------------7--7--6--|
E|-----0-0-0--0-0-0--6--6--5--|--0--0-0-0- 0-0-0-----------|
       PM.........|              PM............|
   -ry

e|-------------------------------|---------------------------------|
B|-------------------------------|---------------------------------|
G|---------------4---------------|---------------------------------|
D|--2------------4---------------|--5---------------5-------4------|
A|--2------------2---------------|--5---------------7-------6------|
E|--0----------------------------|--3------------------------------|
    LR........|  LR............|    LR...........|      
   Can-not kill                    Bat-te-ry is    foun-  -din
             the fa-mi-ly

e|----------------------------|----------------------------|
B|----------------------------|----------------------------|
G|----------------------------|----------------------------|
D|--5-------------------------|-------------------5--5--4/-|
A|--7----------------8--8--7--|-------------------7--7--6/-|
E|-----0-0-0--0-0-0--6--6--5--|--0--0-0-0- 0-0-0-----------|
       PM.........|              PM............|
   me

e| |---------------------------------| |----------------------------|----------------------------|
B| |---------------------------------| |----------------------------|----------------------------|
G|5|---------------------------------|4|----------------------------|----------------------------|
D|/|-/5------------------------------|/|----------------------------|-------------------5--5--4-/|
A|4|-/7----------------8--8--0--1----|4|-------------------8--8--7--|-------------------7--7--6/-|
E| |-----0-0-0--0-0-0--6--6--------1-| |--0--0-0-0--0-0-0--6--6--5--|--0--0-0-0- 0-0-0-----------|
         PM.........|        PM.........................|              PM............|
                               Bat-te-   -ry

e|----------------------------|----------------------------|
B|----------------------------|------------------R---------|
G|----------------------------|------------------E---------|
D|-/5-------------------------|------------------S---------|
A|-/7----------------8--8--7--|--8-----3-----2---T---------|
E|-----0-0-0--0-0-0--6--6--5--|--6-----1-----0-------------|
       PM.........|
                                 Bat- -te-  -ry

Interlude
e|---------------------|----------------------|---------------------|----------------------|
B|---------------------|----------------------|---------------------|----------------------|
G|---------------------|----------------------|---------------------|----------------------|
D|--2------------------|----------------------|--2------------------|----------------------|
A|--2------------------|----------------------|--2------------------|----------------------|
E|--0------------------|----------------------|--0------------------|----------------------|
    LR.......................|                   LR............................|


e|---------------------|----------------------|---------------------|----------------------|
B|---------------------|----------------------|---------------------|----------------------|
G|---------------------|----------------------|---------------------|----------------------|
D|--5------------------|----------------------|--2------------------|----------------------|
A|--5------------------|---------5--X-----5---|--2------------------|----------------------|
E|--3------------------|---------3--X--3--3---|--0------------------|----------------------|
    LR........................|        PM        LR.........................|

e|---------------------|----------------------|
B|---------------------|----------------------|
G|---------------------|------------4--4------|
D|--5------------------|------------4--4------|
A|--5------------------|------------2--2------|
E|--3------------------|----------------------|
    LR.........................|

  Hetfield
e|-------------------------|-------------------------|-------------------------|------------------------|
B|-------------------------|-------------------------|-------------------------|------------------------|
G|-------------------------|-----------5--------4----|-------------------------|----------2--------4----|
D|--2----------------------|--2--------5--------4----|--5----------------------|----------2--------4----|
A|--2-----------------2--2-|--2--------3--------2----|--5-----------------2--2-|--5-------0--------2----|
E|--0-----------------0--0-|--0----------------------|--3-----------------0--0-|--3---------------------|
 |  LR..............| PM.|                                LR..............| PM.|
 |
 |Hammett
e|-------------------------|-------------------------|-------------------------|------------------------|
B|-------------------------|-------------------------|-------------------------|------------------------|
G|-------------------------|-------------------------|-------------------------|------------------------|
D|--------4--5-------------|--------5----------------|--------4--5-------------|--------5-----4--5--7~~~|
A|--7-----------7--------7-|-----------7--------5--7-|--7-----------7--------7-|-----------7------------|
E|-----0-----------0--0----|--0--0--------0--0-------|-----0-----------0--0----|--0--0------------------|
       PM          PM.|       PM.|        PM.|             PM          PM.|       PM.|

  Hetfield
e|-------------------------|------------------------|-------------------------|--------------------------|
B|-------------------------|------------------------|-------------------------|--------------------------|
G|-------------------------|-----------5------4-----|-------------------------|--------------------------|
D|--2----------------------|--2--------5------4-----|--5----------------------|--------------------------|
A|--2-----------------2--2-|--2--------3------2-----|--5-----------------2--2-|------------0--0--0--2--2-|
E|--0-----------------0--0-|--0---------------------|--3-----------------0--0-|--3--3-3-3----------------|
 |  LR..............| PM.|                             LR..............| PM............................|
 |
 |Hammett
e|-------------------------|------------------------|-------------------------|--------------------------|
B|-------------------------|------------------------|-------------------------|--------------------------|
G|-------------------------|------------------------|-------------------------|--------------------------|
D|--------4--5-------------|--------5---------------|--------4--5-------------|--------5-----4--5--7~~~~-|
A|--7-----------7--------7-|-----------7-------5--7-|--7-----------7--------7-|-----------7--------------|
E|-----0-----------0--0----|--0--0-------0--0-------|-----0-----------0--0----|--0--0--------------------|
       PM          PM.|       PM.|       PM.|             PM          PM.|       PM.|


  Hetfield
e|--------------------------|------------------------|-------------------------|------------------------|
B|--------------------------|------------------------|-------------------------|------------------------|
G|--------------------------|-----------5------4-----|-------------------------|-----------2-------4----|
D|--2-----------------------|--2--------5------4-----|--5----------------------|--5--------2-------4----|
A|--2-----------------2--2--|--2--------3------2-----|--5-----------------2--2-|--5--------0-------2----|
E|--0-----------------0--0--|--0---------------------|--3-----------------0--0-|--3---------------------|
 |  LR..............| PM.|                              LR..............| PM.|
 |
 |Hammett
e|--------------------------|------------------------|-------------------------|------------------------|
B|--------------------------|------------------------|-------------------------|------------------------|
G|--------------------------|------------------------|-------------------------|------------------------|
D|--------4--5--------------|--------5---------------|--------4--5-------------|-------5-----4--5--7~~~-|
A|--7-----------7--------7--|-----------7-------5--7-|--7-----------7--------7-|----------7-------------|
E|-----0-----------0--0-----|--0--0-------0--0-------|-----0-----------0--0----|--0--0------------------|
       PM          PM.|        PM.|       PM.|             PM          PM.|       PM.|


  Hetfield
e|--------------------------|-----------------------|---------------------------|----------------------|
B|--------------------------|-----------------------|---------------------------|----------------------|
G|--------------------------|-------------------5---|---------------------------|----------------------|
D|--2-----------------------|--2--------5-------5---|--5------------------------|----------------------|
A|--2-----------------2--2--|--2--------5-------3---|--5------------------------|----------------------|
E|--0-----------------0--0--|--0--------3-----------|--3------------------------|----------------------|
 |  LR..............| PM.|                             LR..........................|
 |
 |Hammett
e|--------------------------|-----------------------|---------------------------|----------------------|
B|--------------------------|-----------------------|---------------------------|----------------------|
G|--------------------------|-----------------------|---------------------------|----------------------|
D|--------4--5--------------|-------------------9/--|-/12-----------------------|----------------------|
A|--7-----------7-----------|--7--------------------|---------------------------|----------------------|
E|-----0-----------0--0--0--|-----------7-----------|---------------------------|----------------------|
                   PM....|                             LR..........................|

Guitar 1 + 2
e|--------------------------|
B|--------------------------|
G|--------------------------|
D|--------------------------|
A|--8--7-----7-----7-----7--|
E|--6--5-----5-----5-----5--|


Solo-Backing
  Hetfield
e||----------------------------|---------------------------|
B|*----------------------------|---------------------------|
G||----------------------------|---------------------------|
D||----------------------------|---------------------------|
A|*-------------------8--8--7--|-----8--8--7------8--8--7--|
E||--0--0-0-0--0-0-0--6--6--5--|--0--6--6--5---0--6--6--5--|
     PM...............|           PM.|         PM.|

e|----------------------------|---------------------------|
B|----------------------------|---------------------------|
G|----------------------------|---------------------------|
D|----------------------------|---------------------------|
A|-------------------8--8--7--|-----8--8--7------4--4--3--|
E|--0--0-0-0--0-0-0--6--6--5--|--0--6--6--5---0--2--2--1--|
    PM............|              PM.|         PM

e|----------------------------|---------------------------|
B|----------------------------|---------------------------|
G|----------------------------|---------------------------|
D|----------------------------|---------------------------|
A|-------------------8--8--7--|-----8--8--7------8--8--7--|
E|--0--0-0-0--0-0-0--6--6--5--|--0--6--6--5---0--6--6--5--|
    PM............|              PM.|         PM.|

e|----------------------------|--------------------------||
B|----------------------------|--------------------------*|
G|----------------------------|--------------------------||
D|----------------------------|--------------------------||
A|-------------------8--8--7--|--8--7-----7-----7-----7--*|
E|--0--0-0-0--0-0-0--6--6--5--|--6--5-----5-----5-----5--||
    PM............|

e|---------------------|----------------------|---------------------|----------------------|
B|---------------------|----------------------|---------------------|----------------------|
G|---------------------|----------------------|---------------------|----------------------|
D|--2------------------|--5-------------------|--7------------------|--4-------------------|
A|--2------------------|--5-------------------|--7------------------|--4-------------------|
E|--0------------------|--3-------------------|--5------------------|--2-------------------|
    LR................|   LR.................|   LR................|   LR.................|

e|---------------------|----------------------|---------------------|----------------------|
B|---------------------|----------------------|------R--------------|----------------------|
G|---------------------|----------------------|------E--------------|----------------------|
D|--2------------------|--5-------------------|--7---S--------------|----------------------|
A|--2------------------|--5-------------------|--7---T--------------|-----------------4----|
E|--0------------------|--3-------------------|--5------------------|-----------------2----|
    LR................|   LR.................|                          Solo-End

Solo 2
Hammett
e|---------------------------------|----------------------------------------|
B|--14b16------14b16--------14b16--|--14b16--------14b16--------14b16-------|
G|--14b16------14b16--------14b16--|--14b16--------14b16--------14b16-12h14-|
D|---------------------------------|----------------------------------------|
A|---------------------------------|----------------------------------------|
E|---------------------------------|----------------------------------------|


e|----------------------------------|---------------------------------|
B|---------------15p12-15p12-15-12--|-12h15p12--12h15p12--12--15b17---|
G|--12--12h14p12------------------15|---------15--------15------------|
D|----------------------------------|---------------------------------|
A|----------------------------------|---------------------------------|
E|----------------------------------|---------------------------------|

e|-----15b17---------15b18-------|--15b18r17b18---------15------------|
B|-------------------------------|--15b18r17b18----17-17--17p15--17-15|
G|-------------------------------|-----------------------------16-----|
D|-------------------------------|------------------------------------|
A|-------------------------------|------------------------------------|
E|-------------------------------|------------------------------------|

e|--------------------------------------------|---------------------------------|
B|--17-------15-12--12-15-12h15p12--12h15p12--|--12h15p12-----15-15b17=========-|
G|------14-16-----14--------------14--------14|---------------------------------|
D|--------------------------------------------|---------------------------------|
A|--------------------------------------------|---------------------------------|
E|--------------------------------------------|---------------------------------|

e|-----------------------------------|--------------------------------------------|
B|-----------------------------------|--------------------------------------------|
G|-4p2p0h4p2p0h4p2p0---4p2p0h4p2p0---|--4p2p0h4p2p0h4p2p0h2h4-0-4p2p0h4p2p0h4p2p0-|
D|-------------------0-------------0-|--------------------------------------------|
A|-----------------------------------|--------------------------------------------|
E|-----------------------------------|--------------------------------------------|

e|----------------------------------------------------|--------------------------------------------|
B|--4p2p0h4p2p0h6p4p0h6p4p0h8p6p0h8p6p0h10p8p0h10p8p0-|-h12p10p0h12p10p0h12p10p0h12p10p0-14--------|
G|----------------------------------------------------|--------------------------------------------|
D|----------------------------------------------------|--------------------------------------------|
A|----------------------------------------------------|--------------------------------------------|
E|----------------------------------------------------|--------------------------------------------|

e|--12--15--14-12h14p12--12-----------|--14p12---------------------|
B|---------------------15--15-12h14p12|-------14-12----------------|
G|------------------------------------|-------------14-12----------|
D|------------------------------------|-------------------14-13-12-|
A|------------------------------------|----------------------------|
E|------------------------------------|----------------------------|

e|-------------------------------|---------------------------------|
B|-------------------------------|---------------------------------|
G|-----------------9--12---------|--12--14-[12]-14~~~~~~~~~~~~~~~--|
D|----------9--12---------12--14-|---------------------------------|
A|--10--11-----------------------|---------------------------------|
E|-------------------------------|---------------------------------|


e|-------------------------------|------------------------------|
B|-----------7--10b12===--[10]-8-|--7-----7--8--7h8p7-----------|
G|--------7----------------------|-----9---------------9--7--6--|
D|--7--9-------------------------|------------------------------|
A|-------------------------------|------------------------------|
E|-------------------------------|------------------------------|



e|--------------------------------|---------------------------------|
B|--------------------------------|---------------------------------|
G|--7----7b9----7----6----4----7--|--6------------------------------|
D|--------------------------------|-------7----6----7/9~~~~~~~~~----|
A|--------------------------------|---------------------------------|
E|--------------------------------|---------------------------------|



e|-----------------------------------|------15b17===--15p12h15p12~~~~~-|
B|-----------12-1q5b17======-15-12---|--12-----------------------------|
G|--------12-----------------------14|---------------------------------|
D|--12-14----------------------------|---------------------------------|
A|-----------------------------------|---------------------------------|
E|-----------------------------------|---------------------------------|


e|--20p15h20p15----------------14-14---------|---------------------------------|
B|-----------------------10-12-------12-10---|---------------------------------|
G|--------------17p16p14-------------------12|--14-12-11h12p11h12p11p9---------|
D|-------------------------------------------|--------------------------9\====\|
A|-------------------------------------------|---------------------------------|
E|-------------------------------------------|---------------------------------|


Guitar 1 + 2
e| |--------------------------|-------------------------||
B| *--------------------------|-------------------------*|
G|4|--------------------------|-------------------------||
D|x|--------3-----4-----3-----|--4-----3-----4----------||
A| *--3-----1-----2-----1-----|--2-----1-----2-----4----*|
E| |--1--0-----0-----0-----0--|-----0-----0-----0--2----||
         PM    PM    PM    PM       PM    PM    PM

e|-----------------------| |----------------------|
B|-----------------------| |----------------------|
G|-----------------------|7|----------------------|
D|-----------------------|/|------------------4---|
A|--3--------------------|8|------------7--7--6---|
E|--1--------------------| |------------0--0------|
                                        PM.|
Verse 3
e| ||----------------------------|----------------------------|
B| |*----------------------------|----------------------------|
G|4||----------------------------|----------------------------|
D|/||--5-------------------------|-------------------5--5--4/-|
A|4|*--7----------------8--8--7--|-------------------7--7--6/-|
E| ||-----0-0-0--0-0-0--6--6--5--|--0--0-0-0- 0-0-0-----------|
          PM.........|              PM............|
       Cir-cle of Destruc--tion,    Hammer  comes cru- -shing
       Whippingup a  fu-  -ry,      Do-mi--na-tingflur--ry

e|----------------------------|----------------------------||
B|----------------------------|----------------------------*|
G|----------------------------|----------------------------||
D|-/5-------------------------|----------------------------||
A|-/7----------------8--8--7--|-----4-----5-----5-----6----*|
E|-----0-0-0--0-0-0--6--6--5--|--0--2-----3--0--3-----4----||
       PM.........|              PM          PM
    Po-wer-houseof e-  -ner-    -gy
    We cre-ate the Bat--te      -ry

Chorus
e|---------------------|----------------------|---------------------|
B|---------------------|----------------------|---------------------|
G|---------------------|----------------------|---------------------|
D|--2------------------|--5-------------------|--7---------------4--|
A|--2------------------|--5-------------------|--7---------7--7--6--|
E|--0------------------|--3-------------------|--5---------0--0-----|
    LR................|   LR.................|             PM.|
   Smashing              Lu-na-cy has found me  Cannotstop
        throughthe                                     the Ba-   tte-
           boun--daries

e|----------------------------|----------------------------|
B|----------------------------|----------------------------|
G|----------------------------|----------------------------|
D|--5-------------------------|-------------------5--5--4/-|
A|--7----------------8--8--7--|-------------------7--7--6/-|
E|-----0-0-0--0-0-0--6--6--5--|--0--0-0-0- 0-0-0-----------|
       PM.........|              PM............|
   -ry

e|----------------------------|----------------------------|
B|----------------------------|----------------------------|
G|----------------------------|----------------------------|
D|-/5-------------------------|----------------------------|
A|-/7----------------8--8--7--|-----4-----5-----5-----6----|
E|-----0-0-0--0-0-0--6--6--5--|--0--2-----3--0--3-----4----|
       PM.........|              PM          PM

e|---------------------|----------------------|---------------------|
B|---------------------|----------------------|---------------------|
G|---------------------|----------------------|---------------------|
D|--2------------------|--5-------------------|--7---------------4--|
A|--2------------------|--5-------------------|--7---------7--7--6--|
E|--0------------------|--3-------------------|--5---------0--0-----|
    LR................|   LR.................|             PM.|
   Poun-ding out         Turnsin-to ob-ses-sion Can-not kill
              ag-gression                               the Bat--te-

e|----------------------------|----------------------------|
B|----------------------------|----------------------------|
G|----------------------------|----------------------------|
D|--5-------------------------|-------------------5--5--4--|
A|--7----------------8--8--7--|-------------------7--7--6--|
E|-----0-0-0--0-0-0--6--6--5--|--0--0-0-0- 0-0-0-----------|
       PM.........|              PM............|
   -ry

e|-------------------------------|---------------------------------|
B|-------------------------------|---------------------------------|
G|---------------4---------------|---------------------------------|
D|--2------------4---------------|--5---------------5-------4------|
A|--2------------2---------------|--5---------------7-------6------|
E|--0----------------------------|--3------------------------------|
    LR........|  LR............|    LR...........|
   Can-not kill                    Bat-te-ry is    foun-  -din
             the fa-mi-ly

e|----------------------------|----------------------------|
B|----------------------------|----------------------------|
G|----------------------------|----------------------------|
D|--5-------------------------|-------------------5--5--4/-|
A|--7----------------8--8--7--|-------------------7--7--6/-|
E|-----0-0-0--0-0-0--6--6--5--|--0--0-0-0- 0-0-0-----------|
       PM.........|              PM............|
   me

e| |---------------------------------| |----------------------------|----------------------------|
B| |---------------------------------| |----------------------------|----------------------------|
G|5|---------------------------------|4|----------------------------|----------------------------|
D|/|-/5------------------------------|/|----------------------------|-------------------5--5--4/-|
A|4|-/7----------------8--8--0--1----|4|-------------------8--8--7--|-------------------7--7--6/-|
E| |-----0-0-0--0-0-0--6--6--------1-| |--0--0-0-0--0-0-0--6--6--5--|--0--0-0-0- 0-0-0-----------|
         PM.........|        PM.........................|              PM............|
                               Bat-te-   -ry

e|----------------------------| |-------------|
B|----------------------------| |-------------|
G|----------------------------|2|-------------|
D|----------------------------|/|-------------|
A|-------------------8--8--7--|4|--8-----3----|
E|--0--0-0-0--0-0-0--6--6--5--| |--6-----1----|
    PM............|
                                  Bat-  -te-

e| |----------------------------|----------------------------|
B| |----------------------------|----------------------------|
G|4|----------------------------|----------------------------|
D|/|----------------------------|-------------------5--5--4/-|
A|4|--2----------------8--8--7--|-------------------7--7--6/-|
E| |--0--0-0-0--0-0-0--6--6--5--|--0--0-0-0- 0-0-0-----------|
      PM............|              PM............|
     -ry

e| |---------------------------------| |----------------------------|----------------------------|
B| |---------------------------------| |----------------------------|----------------------------|
G|5|---------------------------------|4|----------------------------|----------------------------|
D|/|-/5------------------------------|/|----------------------------|-------------------5--5--4/-|
A|4|-/7----------------8--8--0--1----|4|-------------------8--8--7--|-------------------7--7--6/-|
E| |-----0-0-0--0-0-0--6--6--------1-| |--0--0-0-0--0-0-0--6--6--5--|--0--0-0-0- 0-0-0-----------|
         PM.........|        PM.........................|              PM............|
                               Bat-te-   -ry

e|-------------------------|----------------------------|
B|-------------------------|-----------------R----------|
G|-------------------------|-----------------E----------|
D|-/5----------------------|-----------------S----------|
A|-/7-------------8--8--7--|--8-----3-----2--T----------|
E|----0-0--0-0-0--6--6--5--|--6-----1-----0-------------|
      PM.......|
                             Bat-  -te-  -ry

Outro
e| |------------------------|-------------------------||-------------------------|
B| *------------------------|-------------------------*|-------------------------|
G|8|------------------------|-------------------------||-------------------------|
D|x|--------3-----4-----3---|--4-----3-----4----------||--------3-----4-----3----|
A| *--3-----1-----2-----1---|--2-----1-----2-----4----*|--3-----1-----2-----1----|
E| |--1--0-----0----0-----0-|-----0-----0-----0--2----||--1--0-----0-----0-----0-|
         PM    PM   PM    PM      PM    PM    PM             PM    PM    PM    PM

e|-------------------------------|---------------------------------|
B|-------------------------------|---------------------------------|
G|--4----------------------------|---------------------------------|
D|--4----------------------------|---------------------------------|
A|--2----------------------------|---------------------------------|
E|-------------------------------|---------------------------------|
    LR...........................................................|

e|--------------------------|---------------------------------|
B|--------------------------|---------------------------------|
G|--------------------------|---------------------------------|
D|--------------------------|---------------------------------|
A|--4-\3-----3-----3-----3--|--2------------------------------|
E|--2-\1-----1-----1-----1--|--0------------------------------|



            
            
Suggest correction
Creating personal tab
Creating personal tab
You can edit any tab online and save it as your Personal.

You can edit, replace or remove any tab part or add personal notes – all changes will be seen only by you.

Personal tabs can be accessed anytime from any device, even offline.
Learn more »
Give kudos to tab author, rate the tab!
1 2 3 4 5
comments
print report bad tab
guest
You may want to rate the tab now too:
select rating
Wanna post a correction for this tab? Suggest correction