Oops, an error
Loading. Please wait.

Dyers Eve bass

version 4
version 4
568 views 1 this week
no commentswrite comment
1 2 3 4 5
2 more votes to show rating
add to favorites
×
Save as Personal and add changes to this tab that will be seen only by you. Learn more ›
×
You can save this tab as Personal to edit and correct it or add notes. All changes will be seen only by you. Learn more »
launch autoscroll
font size
0
reset
guitar tuner
backing track
0:00
0:00
edit
Autoscroll
slow
fast
+/-
esc
set tempo
stop
Author
Difficulty
================================================================================
                               M E T A L L I C A

                                       -

                               D Y E R S   E V E
================================================================================


                             ...AND JUSTICE FOR ALL
                        (c) Elektra/Vertigo Records (1988)
                            http://www.metallica.com/


                                 Standard Tuning
                                     E A D G

                                  Tempo = 96 BPM
                            Time Signature = 4/4 (Varies)



                          -----------------------------
                                 Transcribed by

                                 PADDY MCMULLAN
                           pmtabs (@t) gmail [dot] com

                          Version 1.0 [7th October 2012]
                                  
                                  Date  Tabbed
                                7th October 2012
                             -----------------------

                             Tablature Symbols Used:


 (/)       -  Legato Slide (Blank space indicates length of slide)
 \         -  Slide Down to/Down From
 /         -  Slide Up to/Up From
 ( )       -  Ghost Note/Tied Note/Implied Note
 REST      -  Rest and sustain rest for duration of blank space
 |_3_|     -  Triplet Notes
 ...       -  Palm Mute
 5~~       -  Vibrato (Whammy vibrato will be specified when required)
 x         -  Dead Note/Muted Note
 5h7       -  Hammer-On
 7p5       -  Pull-Off
 *         -  Staccato Notes (Bring the indicated note(s) to an abrupt end)
 S         -  Slap
 |__[1,2]  -  Alternate Endings/Beginnings



================================================================================
Intro:                                                    [ Time 00:00 - 00:35 ]
================================================================================


| |------------------| |-----------------------|------------------------|
|2|------------------|7|----- ----- ----- -----|----- ----- ----- ------|
|/|--2-3-2-3---------|/|--*-- --*-- --*-- -----|--*-- --*-- --*-- ------|
|4|----------0-1-0-1-|8|--0-----1-----0-----3--|--0-----1-----0-----0-1-|

|--------------------|-----------------------|--------------------------|
|--------------------|-----------------------|--------------------------|
|--------------------|-----------------------|-----------------------*--|
|--0----1----0----3--|--0----1----0--0-1-0-1-|--0--x-x-1--x-x-0--x-x-3--|

|---------------------------|--------------------------|
|---------------------------|--------------------------|
|---------------------------|-----------------------*--|
|--0--x-x-1--x-x-0--x-x-0-1-|--0--x-x-1--x-x-0--x-x-3--|

|---------------------------|--------------------------|
|---------------------------|--------------------------|
|---------------------------|--------------------------|
|--0--x-x-1--x-x-0--0-1-0-1-|--0--0-0-1--1-1-0--0-0-3--|

|---------------------------|--------------------------|
|---------------------------|--------------------------|
|---------------------------|-----------------------*--|
|--0--0-0-1--1-1-0--0-0-0-1-|--0--x-0-1--1-1-0--0-0-3--|

|---------------------------|------------------| |-------------| |-----------||
|---------------------------|------------------|4|-------------|2|-----------||
|---------------------------|------------------|/|-------------|/|-----------||
|--0--0-0-1--1-1-0--0-1-0-1-|--0---------------|4|--(0)--------|4|--(0)------||



During the final 3 bars the tempo gradually decreases to around 36 BPM,
returning to 96 BPM when the next part begins



================================================================================
Part 1:                                                   [ Time 00:35 - 01:12 ]
================================================================================


| |-----------------------------------------------------------|
|4|-----------------------------------------------------------|
|/|--2-2--2-2-2-2-2-2-3--2--0--2--2-2-2-2-2-2-2-2-3--2--0--2--|
|4|-----------------------------------------------------------|

|----------------------------------------------------------|
|----------------------------------------------------------|
|--2-2-2-2-2-2-2-2-3-3--2--0--2--2-2-2-2-2-2-2-3--2--------|
|----------------------------------------------------3--2--|

|----------------------------------------------------|
|----------------------------------------------------|
|--2-2-2-2-2-2-2-3--2--0-0-2--2-2-2-2-2-2-2-3--2---0-|
|----------------------------------------------------|

|---------------------------------------------------------|------------------|
|---------------------------------------------------------|---- --- --- --- -|
|--2--2-2-2-2-2-2-3-3--2--0--2--2-2-2-2-2-2-2-3--2--------|--*- -*- -*- -*- -|
|---------------------------------------------------3--2--|--0---0---0---0---|
                                                   ...

|-----------------------------------------------------|
|-----------------------------------------------------|
|--2--2-2-2-2-2-0-2-0h2-2--3-3-3-3-3-3-3--2--2--------|
|-----------------------------------------------3--2--|

|---------------------------------------------------|
|---------------------------------------------------|
|----------------7-----------5-----------3----------|
|--0--0-0-3-3p0----0--3-3p0----0--3-3p0----0--3-2p0-|

|---------------------------------------------------|--------------------------|
|---------------------------------------------------|----- ----- --*-- --*-- --|
|--2--2-2-2-2-2-0--2--0--2--3--3--3--3--2--2--------|--*-- --*-- --5-- --3-- --|
|---------------------------------------------3--2--|--0-----0-----------------|

|------------------------------------------------------|
|------------------------------------------------5--4--|
|--2-2-2-2-2-2-2-0--2--0--2--3-3-3-3-3--3--3--2--------|
|------------------------------------------------------|

|----------------------------------------------------------|
|----------------------------------------------------------|
|--2--2--2-2-2-2-3--2--0--2--2-2-2-2-2-2-2-2-3-3-2--0-0-2--|
|----------------------------------------------------------|

|--------------------------------------------------------|
|--------------------------------------------------------|
|--2-2-2-2-2-2-2--3--2--0--3--2-2-2-2-2-2-2--3--2--------|
|--------------------------------------------------3--2--|

|------------------------------------------------------|
|------------------------------------------------------|
|--2--2-2-2-2-2-2-3--2--0--2--2--2-2-2-2-2-2-3-2----0--|
|------------------------------------------------------|

|--------------------------------------------------------|
|--------------------------------------------------------|
|--2-2-2-2-2-2-2--3--2--0--3--2-2-2-2-2-2-2--3--2--------|
|--------------------------------------------------3--2--|

| |-----------------------||
|2|-------------*---------||
|/|-------------7---------||
|4|--0----3-3-0------0----||



================================================================================
Part 2:                                                   [ Time 01:12 - 01:56 ]
================================================================================


| |-----------------------------------------------------------|
|4|-----------------------------------------------------------|
|/|-----------------------------------------------------------|
|4|--2-2-0--2--0-0-2-2-0--2--0-0-3-3-0-0-3--0-0-3-3-0-0-3--0--|

|-----------------------------------------------------------|
|-----------------------------------------------------------|
|--------------------------------------------------2--3-----|
|--5-5-0-0-5-5-0-0-5-5-0-0-3--2--0--0-0-0-0-0-0-0-------0-0-|

|-----------------------------------------------------------|
|-----------------------------------------------------------|
|-----------------------------------------------------------|
|--2-2-0-0-2-2-0-0-2-2-0--2--0--3-3-0-3-3-0-0--3-3-0-3-3-0--|

|-------------------------------------------------------|
|-------------------------------------------------------|
|--7---7-7----7--0--------------------------------------|
|----0-----0--0--0--0-0-0-0-5-5-0-0-5-5-0-0-5--2--3--0--|

|----------------------------------------------------------|
|----------------------------------------------------------|
|------------------------------5----5-5-----5-5-----5-5----|
|--2--0-0-2--0-0-2-2-0-0-2--0-----0-----0-0-----0-0-----0--|

|------------------------------------------| |--------------|
|----------------------------------      --|2|--------------|
|-------------------------------*--      --|/|--2-2---3-3---|
|--5--0--5-5-0-0-5--0-0-5-5-0-0-3----------|4|--------------|

| |------------------------------------------------------|
|4|------------------------------------------------------|
|/|--2-2-2-2-2-2-2--3--2--0--2--2-2-2--2--2--3--2--------|
|4|------------------------------------------------3--2--|

|--------------------------------------------------------|
|--------------------------------------------------------|
|--------------------------------------------------------|
|--0-2-0--2-2-0--2-2-0--2--0--3-3-0-0-3--0--3--0--3-3-0--|

|---------------------------------------------------------|
|---------------------------------------------------------|
|------------------------------------------------2--3-----|
|--5--0--5-5-0-0-5-5-0--5--0--0-0-0-0-0-0--0--0--------0--|

|-------------------------------------------------------|
|-------------------------------------------------------|
|-------------------------------------------------------|
|--2-2-0-0-2--0--2-2-0--2--0--3--0--3-3-0--3-3-0--3--0--|

|----------------------------------------------------|
|----------------------------------------------------|
|----------------------------------------------------|
|--0----0--0--0--0--0--0--5-5-5-5-5--5--5--2--3--0-0-|

|---------------------------------------------------------|
|---------------------------------------------------------|
|------------------------------5-5-----5-5----5-----5-----|
|--2--0--2-2-0--2-2-0-0--0--0------0-0-----0----0-0----0--|

|-----------------------------------------| |------------|
|---------------------------------      --|2|--     -----|
|------------------------------*--      --|/|--     --3--|
|--5--0--5-5-0-0-5-5-0--5-5-0--3----------|4|------------|

| |-------------------------------------------------------|
|4|-------------------------------------------------------|
|/|--2-2-2-2-2-2-2-2-3--2--0--2-2-2-2-2-2-2-2-3--2--0--2--|
|4|-------------------------------------------------------|
                                                                S     S
|----------------------------------------------------------| |--------------|
|----------------------------------------------------------|2|----- ----- --|
|--2-2-2-2-2-2-2-2-3--2--0--2--2-2-2-2-2-2-2-2-3--2--------|/|--*-- --*-- --|
|----------------------------------------------------3--2--|4|--0-----0-----|

|------------------------------------------------------|
|------------------------------------------------------|
|--2--2-2-2-2-2--0--2--0--2--3--3-3-3-3-3--2--2--------|
|------------------------------------------------3--2--|

| |-----------------------||
|2|-------------*---------||
|/|-------------7---------||
|4|--0----3-3-0------0----||



Dear mother, dear father
What is this hell you have put me through?
Believer, deceiver
Day in, day out, live my life through you
Pushed onto me what's wrong or right
Hidden from this thing that they call "life"

Dear mother, dear father
Every thought I think you disapprove
Curator, dictator
Always censoring my every move
Children are seen but are not heard
Tear out everything inspired



================================================================================
Part 3:                                                   [ Time 01:56 - 02:18 ]
================================================================================


| |---------------------------------------------|
|4|-----------------------------------*---------|
|/|-----------------------------------7----7----|
|4|--0----0--0--0----0--0--0----3-3-0-----------|

|---------------------------------------------|
|-----------------------------------*---------|
|--5--5--5----5--5--5---------------7---------|
|------------------------0----3--0-------0----|

|---------------------------------------------|
|-----------------------------------*---------|
|-----------------------------------7----7----|
|--0----0--0--0----0--0--0----3-3-0-----------|

| |------------------------------------------------|
|7|------------------------------------------------|
|/|--2-2---3----3----2-2---2-2-2---2-2-2---2-2-2---|
|8|------------------------------------------------|

|--------------------------------------------------------|
|--------------------------------------------------------|
|--2--2--2-2-2--3--2--0-0-2--2-2-2-2-2-2-2-2-3--2--0--2--|
|--------------------------------------------------------|

|--------------------------------------------------------|
|--------------------------------------------------------|
|--2-2-2-2-2-2-2--3--2--0--3--2-2-2-2-2-2-2--3--2--------|
|--------------------------------------------------3--2--|

|--------------------------------------------------------|
|--------------------------------------------------------|
|--2-2-2-2-2-2-2-3-3--2--0--2--2-2-2-2-2-2-2--3--2----0--|
|--------------------------------------------------------|

|-------------------------------------------------------|
|-------------------------------------------------------|
|--2--2-2-2-2-2-2-3--2--0--3--2-2-2-2-2--2--3--2--------|
|-------------------------------------------------3--2--|

| |-----------------------||
|2|-----------------------||
|/|-------------7---------||
|4|--0----3-3-0------0----||



Innocence torn from me without your shelter
Barred reality
I'm living blindly



================================================================================
Part 4: Repeat Part 2                                     [ Time 02:18 - 03:02 ]
================================================================================


||------------------------------------------------------|
||------------------------------------------------------|
||------------------------------------------------------|
||--2-2-0--2--0--2--0--2--0--3-3-0-0-3-3-0--3--0--3--0--|

|--------------------------------------------------------|
|--------------------------------------------------------|
|-----------------------------------------------2--3-----|
|--5--0--5-5-0-0-5-5-0--3--2--0--0-0-0-0-0-0-0--------0--|

|----------------------------------------------------------|
|----------------------------------------------------------|
|----------------------------------------------------------|
|--2--0-0-2-2-0-0-2-2-0--2--0--3--0-0-3-3-0-0-3-3-0--3--0--|

|--------------------------------------------------------|
|--------------------------------------------------------|
|--7------7-7----7-- --7-7-------------------------------|
|-----0-0-----0--0--0--0-0-0--5-5-0-0-5--0-0-5--2--3--0--|

|--------------------------------------------------|
|--------------------------------------------------|
|---------------------------5----5----5------5-----|
|--2-2-0--2--0--2--0--2--0-----0----0----0-0----0--|

|--------------------------------------| |--------------|
|------------------------------      --|2|--------------|
|---------------------------*--      --|/|--2-2---3-3---|
|--5--0-0-5--0--5--0--5--0--3----------|4|--------------|

| |--------------------------------------------------------|
|4|--------------------------------------------------------|
|/|--2-2-2-2-2-2-2--3--2--0--2--2-2-2-2-2-2-2--3--2--------|
|4|--------------------------------------------------3--2--|

|-------------------------------------------------------|
|-------------------------------------------------------|
|-------------------------------------------------------|
|--2--0-0-2----2-2-0-0-2--0--3--0-0-3--0--3-3-0-0-3--0--|

|----------------------------------------------------|
|----------------------------------------------------|
|--------------------------------------------2--3----|
|--5--0--5-5-0-0-5--0--3--2--0----0-0-0-0-0----------|

|---------------------------------------------------------|
|---------------------------------------------------------|
|---------------------------------------------------------|
|--2--0-0-2--0-0-2-2-0-0-2--0--3--0-0-3--0-0-3--0-0-3--0--|

|----------------------------------------------------------|
|----------------------------------------------------------|
|--7------7-7----7-7-----7-7-------------------------------|
|-----0-0-0-0-0--0-0-0-0-0-0-0--5--5-5-5-5-5-5-5--2--3--0--|

|-------------------------------------------------------------|
|-------------------------------------------------------------|
|-------------------------------5------5-5-----5-5-----5-5----|
|--2-2-0--2-2-0-0-2-2-0-0-2--0-----0-0-----0-0-----0-0-----0--|

|-----------------------------------------| |------------|
|---------------------------------      --|2|--     -----|
|------------------------------*--      --|/|--     --3--|
|--5--0-0-5-5-0--5-5-0-0-5--0--3----------|4|------------|

| |----------------------------------------------------------|
|4|----------------------------------------------------------|
|/|--2-2-2-2-2-2-2-2-3--2--0--2--2-2-2-2-2-2-2--3--2--0-0-2--|
|4|----------------------------------------------------------|
                                                                    S
|--------------------------------------------------------| |--------------|
|--------------------------------------------------------|2|----- ----- --|
|--2-2-2-2-2-2-2-2-3--2--0--2--2-2-2-2-2--2--3--2--------|/|--*-- --*-- --|
|--------------------------------------------------3--2--|4|--0-----0-----|

|--------------------------------------------------------|
|--------------------------------------------------------|
|--2-2-2-2-2-2-2--0--2--0--2--3-3-3-3-3-3-3--2--2--------|
|--------------------------------------------------3--2--|

| |-----------------------||
|2|-------------*---------||
|/|-------------7---------||
|4|--0----3-3-0------0----||



Dear mother, dear father
Time has frozen still what's left to be
Hear nothing, say nothing
Cannot face the fact I think for me
No guarantee, it's life "as is"
But damn you for not giving me my chance

Dear mother, dear father
You clipped my wings before I learned to fly
Unspoiled, unspoken
I've outgrown that fucking lullaby
Same thing I've always heard from you
"Do as I say, not as I do"



================================================================================
Part 5: Repeat Part 3 with the following variations       [ Time 03:02 - 03:23 ]
================================================================================


| |--------------------------------------------|
|4|----------------------------------*---------|
|/|----------------------------------7----7----|
|4|--0----0--0--0----0--0--0----3--0-----------|

|---------------------------------------------|
|-----------------------------------*---------|
|--5--5--5----5--5--5---------------7---------|
|------------------------0----3--0-------0----|

|----------------------------------------------|
|------------------------------------*---------|
|------------------------------------7----7- \ |
|--0----0--0--0----0--0--0----3-3-0------------|

| |-----------------------------------------------|
|7|-----------------------*------*------*------*--|
|/|--2-2-2--3----3----2-2-2--2-2-2--2-2-2--2-2-0--|
|8|-----------------------------------------------|

| |-----------------------------------------------------------|
|4|-----------------------------------------------------------|
|/|--2--2-2-2-2-2--3-3-2--0-0-2--2-2-2-2-2-2-2-2-3--2--0h2-2--|
|4|-----------------------------------------------------------|

|--------------------------------------------------------|
|--------------------------------------------------------|
|--2-2-2-2-2-2-2--3--2--0--3--2-2-2-2-2-2-2--3--2--------|
|--------------------------------------------------3--2--|

|--------------------------------------------------------|
|--------------------------------------------------------|
|--2-2-2-2-2-2-2-2-3--2--0--2--2-2-2-2-2-2-2--3--2----0--|
|--------------------------------------------------------|

| |--------------------------------------------------------------------||
|5|--------------------------------------------------------------------||
|/|--2-2-2-2-2-2-2-2-3--2--0--2--2-2-2-2-2--2--2--3--2--3--------------||
|4|--------------------------------------------------------0--1--0--1--||



================================================================================
Part 6:                                                   [ Time 03:23 - 03:37 ]
================================================================================


| |----------------------------------------|
|7|----------------------------------------|
|/|-----------------------------------*----|
|8|--0----x--x--1----x--x--0----x--x--3----|

|-----------------------------------------|
|-----------------------------------------|
|-----------------------------------------|
|--0----x--x--1----x--x--0----x--x--0--1--|

|----------------------------------------|
|----------------------------------------|
|-----------------------------------*----|
|--0----x--x--1----x--x--0----x--x--3----|

|-----------------------------------------|
|-----------------------------------------|
|-----------------------------------------|
|--0----x--x--1----x--x--0----0--1--0--1--|

|----------------------------------------|
|----------------------------------------|
|----------------------------------------|
|--0----0--0--1----1--1--0----0--0--3----|

| |-----------------------------------------------------||
|9|-----------------------------------------------------||
|/|-----------------------------------------2--3--2--3--||
|8|--0----0--0--1----1--1--0----0--1--0--1--------------||



================================================================================
Guitar Solo Backing:                                      [ Time 03:37 - 04:23 ]
================================================================================


| |------------------------------------------------------|
|4|------------------------------------------------------|
|/|----------------------5--7----------------------5--7--|
|4|--0--0-0-0-0-0--1--0--------0--0-0-0-0-0--1--0--------|

|---------------------------------------------------------|
|---------------------------------------------------------|
|-----------------------5--7------------------------------|
|--0-0-0-0-0-0-0--1--0--------0-0-0-0-0-0-0--0--1--0-0-1--|

|--------------------------------------------------------|
|--------------------------------------------------------|
|-----------------------5--7-----------------------5--7--|
|--0-0-0-0-0-0-0--1--0--------0-0-0-0-0-0-0--1--0--------|

|------------------------------------------------------|
|------------------------------------------------------|
|-----------------------5--7---------------------------|
|--0-0-0-0-0-0-0--1--0--------0-0-0--0--0--0--1--0--1--|

|----------------------------------------------------------|
|----------------------------------------------------------|
|----------------------------------------------------------|
|--2--2-2-2-2-2-2-3--2--0h2-2--2-2-2-2-2-2-2-2-3--2--0--2--|

|---------------------------------------------------------|
|---------------------------------------------------------|
|---------------------------------------------------------|
|--2-2-2-2-2-2-2-2-3--2--0--2-2-2-2-2-2-2--0--2--3--2--3--|

|----------------------------------------------------------|
|----------------------------------------------------------|
|----------------------------------------------------------|
|--2-2-2-2-2-2-2-2-3--2--0--2--2-2-2-2-2-2-2-2-3--2--0--2--|

| |------------------------------------------------------------------|
|5|------------------------------------------------- ------- --------|
|/|----------------------------------------------*-- ----*-- --------|
|4|--2-2-2-2-2-2-2--3--2--0h2-2--2-2-2--2--0--3--0----3--2----2--0-0-|

| |------------------------------------------------------|
|4|------------------------------------------------------|
|/|------------------------------------------------------|
|4|--2--0-0-2--0--2--0--2--0--3-3-0--3--0-0-3--0-0-3--0--|

|-----------------------------------------------------|
|-----------------------------------------------------|
|-----------------------------------------------------|
|--5--0-0-5--0-0-5--0--5--2--0--0--0-0-0--0--2--2--0--|
                         ...

|-------------------------------------------------------|
|-------------------------------------------------------|
|-------------------------------------------------------|
|--2--2-2-2-2-2-2-3--2--0--2--2--2-2-2-2-2--3--2--0--2--|

| |-------------------------------------------------------------------|
|5|-------------------------------------------------------------------|
|/|-------------------------------------------------------------------|
|4|--2--2-2-2-2-2--3--2-2-0--2--2--2-2-2-2-0--2--2-2-2--2--2----2--0--|

| |--------------|
|2|--------------|
|/|--*--*--*-----|
|4|--2--2--2--2--|

| |--------------------------------------------------------|
|4|--------------------------------------------------------|
|/|----------------------5--7------------------------5--7--|
|4|--0--0-0-0-0-0--1--0--------0-0-0-0-0-0-0-0-1--0--------|

|--------------------------------------------------------|
|--------------------------------------------------------|
|------------------------5--7----------------------------|
|--0-0-0-0-0-0-0-0-1--0--------0-0-0-0-0--0--1--0--1--0--|

|------------------------------------------------------------|
|------------------------------------------------------------|
|----------------------------5-------5-5-----5-5-----5-5-----|
|--2--0--2--0-0-2--0-0-2--0-----0-0------0-0-----0-0-----0-0-|

|-------------------------------------------------------------|
|-------------------------------------------------------------|
|-------------------------------------*------*------*------*--|
|--5-5-0-0-5-5-0-0-5-5-0-0-5-5-0--3-3-3--3-3-3--3-3-3--3-3-3--|

|-------------------------------------------| |-------------||
|---------------------------------     -----|2|-----      --||
|------*------*------*------*--*--     -----|/|--*--      --||
|--3-3-3--3-3-3--3-3-3--3-3-3--3---------3--|4|--3----------||



================================================================================
Part 7:                                                   [ Time 04:23 - 04:50 ]
================================================================================


| |--------------------------------------------------|
|4|--------------------------------------------------|
|/|-------------------5--7---------------------5--7--|
|4|--0----0--0--5--0--------0--0-0-0--0--1--0--------|

|----------------------------------------------------|
|----------------------------------------------------|
|---------------------5--7---------------------------|
|--0--0-0-0-0-0-1--0--------0--0-0-0--0--0--1--0--1--|

|----------------------------------------------------|
|----------------------------------------------------|
|-----------------------5--7-----------------------5-|
|--0--0-0-0-0-0-0-1--0--------0--0-0-0--0--1--0------|

|---------------------------------------------------|
|----------------------------------------------- ---|
|--7-------------------5--7-------------------*- ---|
|-----0-0-0--0-0-1--0--------0--0-0-0--0-0-0--1---1-|

|------------------------------------------------------|
|------------------------------------------------------|
|----------------------5--7----------------------5--7--|
|--0--0-0-0-0-0--1--0--------0--0-0-0-0-0--1--0--------|

|-----------------------------------------------------|
|-----------------------------------------------------|
|----------------------5--7---------------------------|
|--0--0-0-0-0-0--1--0--------0--0-0-0--0--0--1--0--1--|

|---------------------------------------------------|
|---------------------------------------------------|
|---------------------5--7-----------------------5--|
|--0--0-0-0--0--1--0--------0--0-0-0--0--1--0-------|

|-----------------------------------------------------|
|-----------------------------------------------------|
|--7-------------------5--7---------------------------|
|-----0-0-0--0-0-1--0--------0--0-0-0--0--0--1--0--1--|

          |_3_|
| |------------------------------------------|
|7|---------------*----------------*---------|
|/|---------------7----------------7---------|
|8|--0----3-3-3-0------0----3-3-0-------0----|

|---------------------------------| |----------------------------------------||
|-----------  ---  ---------------|3|------------------------------*---------||
|---------*-  -*-  ---------------|/|------------------------------7----7 \--||
|--3-3-0--0----0----0-0-0--0-0-0--|4|--0-0-0--0-0-0--0-0-0--3-3-0------------||



I'm in hell without you
Cannot cope without you two
Shocked at the world that I see
Innocent victim, please rescue me



================================================================================
Part 8:                                                   [ Time 04:50 - 05:13 ]
================================================================================


| |--------------------------------------------------------|
|4|--------------------------------------------------------|
|/|--------------------------------------------------------|
|4|--2--0--2--0--2--0--2--0--3-3-0-0-3-3-0-0-3-3-0-0-3--0--|

|----------------------------------------------------------|
|----------------------------------------------------------|
|-------------------------------------------------2--3-----|
|--5--0-0-5-5-0-0-5-5-0-0-3--2--0--0-0-0-0-0-0-0--------0--|

|------------------------------------------------------------|
|------------------------------------------------------------|
|------------------------------------------------------------|
|--2-2-0-0-2--0-0-2-2-0-0-2-2-0--3--0--3-3-0-0-3-3-0-0-3--0--|

|-------------------------------------------------------------|
|-------------------------------------------------------------|
|--7-7-0-0-7-7-0-0-7-7-0-0------------------------------------|
|--0-0-0-0-0-0-0-0-0-0-0-0-0-0-0--5-5-0-0-5-5-0-0-5--2--3--0--|

|------------------------------------------------------------|
|------------------------------------------------------------|
|--------------------------------5-----5-5-----5-5-----5-----|
|--2-2-0-0-2-2-0-0-2-2-0h2-2--0----0-0-----0-0-----0-0----0--|

|------------------------------------------| |----------------|
|----------------------------------      --|2|--     ---------|
|-------------------------------*--      --|/|--     --2h3----|
|--5--0--5-5-0-0-5-5-0-0-5-0-0--3----------|4|----------------|

|------------------|
|------------------|
|--2-3-2-3---------|
|----------0-1-0-1-|

| |----------------------------------------|
|7|----------------------------------------|
|/|----------------------------------------|
|8|--0----x--0--1----1--1--0----0--0--3----|

|----------------------------------------| |-------||
|----------------------------------------|1|---- --||
|----------------------------------------|/|--*- --||
|--0----0--0--1----1--1--0---0--1--0--1--|8|--0----||



Dear mother, dear father
Hidden in your world you've made for me
I'm seething, I'm bleeding
Ripping wounds in me that never heal
Undying spite I feel for you
Living out this hell you always knew



================================================================================
End
================================================================================

Tab summary:        Intro
                    Part 1
                    Part 2
                    Part 3
                    Part 4
                    Part 5
                    Part 7
                    Guitar Solo Backing
                    Part 8

                    END

            
            
Suggest correction
Creating personal tab
Creating personal tab
You can edit any tab online and save it as your Personal.

You can edit, replace or remove any tab part or add personal notes – all changes will be seen only by you.

Personal tabs can be accessed anytime from any device, even offline.
Learn more »
Give kudos to tab author, rate the tab!
1 2 3 4 5
comments
print report bad tab
guest
You may want to rate the tab now too:
select rating
Wanna post a correction for this tab? Suggest correction