Oops, an error
Loading. Please wait.

Dyers Eve tab

version 4
version 4
8,700 views 21 this week
no commentswrite comment
1 2 3 4 5
x 7
add to favorites
×
Save as Personal and add changes to this tab that will be seen only by you. Learn more ›
×
You can save this tab as Personal to edit and correct it or add notes. All changes will be seen only by you. Learn more »
launch autoscroll
font size
0
reset
how to read this tab
guitar tuner
backing track
0:00
0:00
edit
Autoscroll
slow
fast
+/-
esc
set tempo
stop
Author
Difficulty
================================================================================
                               M E T A L L I C A
                                       -
                               D Y E R S   E V E
================================================================================

                             ...AND JUSTICE FOR ALL
                        (c) Elektra/Vertigo Records (1988)
                            http://www.metallica.com/

                                 Standard Tuning
                                   E A D G B E

                                  Tempo = 96 BPM
                            Time Signature = 4/4 (Varies)
                          -----------------------------
                                 Transcribed by

                                 PADDY MCMULLAN
                           pmtabs (@t) gmail [dot] com

                          Version 1.0 [7th October 2012]
                                  
                                  Date  Tabbed
                                7th October 2012
                             -----------------------
                             Tablature Symbols Used:

 (/)       -  Legato Slide (Blank space indicates length of slide)
 \         -  Slide Down to/Down From
 /         -  Slide Up to/Up From
 ( )       -  Ghost Note/Tied Note/Implied Note
 REST      -  Rest and sustain rest for duration of blank space
 |_3_|     -  Triplet Notes
 ...       -  Palm Mute
 5b6       -  Bend
 6r5       -  Release Bend
 13b;      -  Three Quarter Note Bend
 5~~       -  Vibrato (Whammy vibrato will be specified when required)
 <5>       -  Harmonic (Natural & Pinch Harmonics indicated with N & P)
 x         -  Dead Note/Muted Note
 %         -  Whammy Bar Articulation
 5h7       -  Hammer-On
 7p5       -  Pull-Off
 *         -  Staccato Notes (Bring the indicated note(s) to an abrupt end)
 |__[1,2]  -  Alternate Endings/Beginnings

================================================================================
Intro: Guitars 1 & 2 (Distortion)                         [ Time 00:00 - 00:35 ]
================================================================================

e| |--------------------------| |-----------------------|
B| |--------------------------| |----- ----- ----- -----|
G|2|--------------------------|7|----- ----- ----- -----|
D|/|--4--5--4--5--------------|/|--*-- --*-- --*-- -----|
A|4|--2--3--2--3--0--3--0--3--|8|--2-- --3-- --2-- --5--|
E| |--------------0--1--0--1--| |--0-----1-----0-----3--|
     ......................

e|--------------------------|--------------------|-----------------------------|
B|----- ----- ----- --------|--------------------|-----------------------------|
G|----- ----- ----- --------|--------------------|-----------------------------|
D|--*-- --*-- --*-- --------|--------------------|-----------------------------|
A|--2-- --3-- --2-- --0--3--|--2----3----2----5--|--2----3----2----2--3--0--3--|
E|--0-----1-----0-----0--1--|--0----1----0----3--|--0----1----0----0--1--0--1--|
                     ....                                         ..........

e|--------------------------|----------------------------|
B|--------------------------|----------------------------|
G|--------------------------|----------------------------|
D|-----------------------*--|----------------------------|
A|--2--x-x-3--x-x-2--x-x-5--|--2--x-x-3--x-x-2--x-x------|
E|--0--x-x-1--x-x-0--x-x-3--|--0--x-x-1--x-x-0--x-x-0-1--|
                                                   ...

e|--------------------------|----------------------------|
B|--------------------------|----------------------------|
G|--------------------------|----------------------------|
D|-----------------------*--|----------------------------|
A|--2--x-x-3--x-x-2--x-x-5--|--2--x-x-3--x-x-2-----------|
E|--0--x-x-1--x-x-0--x-x-3--|--0--x-x-1--x-x-0--0-1-0-1--|
                                               .......

e|--------------------------|----------------------------|
B|--------------------------|----------------------------|
G|--------------------------|----------------------------|
D|-----------------------*--|----------------------------|
A|--2--x-x-3--x-x-2--x-x-5--|--2--x-x-3--x-x-2--x-x------|
E|--0--x-x-1--x-x-0--x-x-3--|--0--x-x-1--x-x-0--x-x-0-1--|
                                                   ...

e|--------------------------|---------------------------|--------------|
B|--------------------------|---------------------------|--------------|
G|--------------------------|---------------------------|--------------|
D|-----------------------*--|---------------------------|--2-----------|
A|--2--x-x-3--x-x-2--x-x-5--|--2--x-x-3--x-x-2----------|--2-----------|
E|--0--x-x-1--x-x-0--x-x-3--|--0--x-x-1--x-x-0--0-1-0-1-|--0-----------|
                                               .......

e| |-------------------| |-----------||
B| |-------------------| |-----------||
G|4|-------------------|2|-----------||
D|/|--(2)--------------|/|--(2)------||
A|4|--(2)--------------|4|--(2)------||
E| |--(0)--------------| |--(0)------||

During the final 3 bars the tempo gradually decreases to around 36 BPM,
returning to 96 BPM when the next part begins

================================================================================
Part 1: Guitars 1 & 2                                     [ Time 00:35 - 01:12 ]
================================================================================

e| |---------------------------------------------------------------|
B| |---------------------------------------------------------------|
G|4|---------------------------------------------------------------|
D|/|--4--4-4-4-4-4-4-(5\4)----4--4--4-4-4-4-4-4-4-4-(5\4)----4--4--|
A|4|--2--2-2-2-2-2-2-(3\2)----0--2--2-2-2-2-2-2-2-2-(3\2)----0--2--|
E| |---------------------------------------------------------------|
        ...........                ...............

e|--------------------------------------------------------------|
B|--------------------------------------------------------------|
G|--------------------------------------------------------------|
D|--4-4-4-4-4-4-4-4-(5\4)----4--4--4-4-4-4-4-4-4-4--------5--4--|
A|--2-2-2-2-2-2-2-2-(3\2)----0--2--2-2-2-2-2-2-2-2--3--2--------|
E|--------------------------------------------------------------|
   ...............                ........................

e|-----------------------------------------------------------|
B|-----------------------------------------------------------|
G|-----------------------------------------------------------|
D|--4--4-4-4-4-4-4-(5\4)----4--4--4-4-4-4-4-4-4-4-5\4-----4--|
A|--2--2-2-2-2-2-2-(3\2)----0--2--2-2-2-2-2-2-2-2-3\2-----0--|
E|-----------------------------------------------------------|
      ...........                ...............        ...

e|-------------------------------------------------------------|
B|-------------------------------------------------------------|
G|-------------------------------------------------------------|
D|--4--4-4-4-4-4-4-(5\4)----4--4--4-4-4-4-4-4-4-4--------5--4--|
A|--2--2-2-2-2-2-2-(3\2)----0--2--2-2-2-2-2-2-2-2--3--2--------|
E|-------------------------------------------------------------|
      ...........                ........................

e|---------------------------------------|
B|------------ -------- -------- --------|
G|------------ -------- -------- --------|
D|--*------*-- -----*-- -----*-- -----*--|
A|--2------2-- -----2-- -----2-- -----2--|
E|--0--3-3-0----3-3-0----3-3-0----3-3-0--|
      ...      ...      ...      ...

e|-----------------------------------------------------|
B|-----------------------------------------------------|
G|-----------------------------------------------------|
D|--4--4-4-4-4-4-4-4--4--4--4--5----5--5--4--4---------|
A|--2--2-2-2-2-2-2-0--2--0--2--3----3--3--2--2---------|
E|----------------------------------------------3-3-0--|
      ......................       .................

e|----------------------------------------------------|
B|----------------------------------------------------|
G|----------------------------------------------------|
D|--------------9-- \--------7-- \--------5-----------|
A|--2-----------7-- \--------5-- \--------3-----------|
E|--0----3-3-0--------3-3-0--5-- \-3-3-0--3----3-3-0--|
        .....        .....        .....       .....

e|-----------------------------------------------------|
B|-----------------------------------------------------|
G|-----------------------------------------------------|
D|--4--4-4-4-4-4-4-4--4--4--4--5----5--5--4--4---------|
A|--2--2-2-2-2-2-2-0--2--0--2--3----3--3--2--2---------|
E|----------------------------------------------3-3-0--|
      ......................       .................

e|--------------------------|-------------------------------------------------|
B|----- --*-- --*-- --*-- --|-------------------------------------------------|
G|--*-- --9-- --7-- --5-- --|-------------------------------------------------|
D|--2-- --9-- --7-- --5-- --|--4--4-4-4-4-4-4-4--4--4--4--5----5--5--4--------|
A|--2-- --7-- --5-- --3-- --|--2--2-2-2-2-2-0-0--2--0--2--3----3--3--2--12\ --|
E|--0-----7-----5-----3-----|-------------------------------------------12\ --|
                                 ......................       .......

e|---------------------------------------------------------------|
B|---------------------------------------------------------------|
G|---------------------------------------------------------------|
D|--4--4-4-4-4-4-4-(5\4)----4--4--4-4-4-4-4-4-4-4-(5\4)----4--4--|
A|--2--2-2-2-2-2-2-(3\2)----0--2--2-2-2-2-2-2-2-2-(3\2)----0--2--|
E|---------------------------------------------------------------|
      ...........                ...............

e|--------------------------------------------------------------|
B|--------------------------------------------------------------|
G|--------------------------------------------------------------|
D|--4-4-4-4-4-4-4-4-(5\4)----4--4--4-4-4-4-4-4-4-4--------5--4--|
A|--2-2-2-2-2-2-2-2-(3\2)----0--2--2-2-2-2-2-2-2-2--3--2--------|
E|--------------------------------------------------------------|
   ...............                ........................

e|-----------------------------------------------------------|
B|-----------------------------------------------------------|
G|-----------------------------------------------------------|
D|--4--4-4-4-4-4-4-(5\4)----4--4--4-4-4-4-4-4-4-4-5\4-----4--|
A|--2--2-2-2-2-2-2-(3\2)----0--2--2-2-2-2-2-2-2-2-3\2-----0--|
E|-----------------------------------------------------------|
      ...........                ...............        ...

e|-------------------------------------------------------------|
B|-------------------------------------------------------------|
G|-------------------------------------------------------------|
D|--4--4-4-4-4-4-4-(5\4)----4--4--4-4-4-4-4-4-4-4--------5--4--|
A|--2--2-2-2-2-2-2-(3\2)----0--2--2-2-2-2-2-2-2-2--3--2--------|
E|-------------------------------------------------------------|
      ...........                ...........................

e| |---------------------||
B| |---------------------||
G|2|---------------------||
D|/|-------------*-------||
A|4|--2----------2---2---||
E| |--0---3-3-0--0---0---||
         .....

================================================================================
Part 2: Guitars 1 & 2                                     [ Time 01:12 - 01:56 ]
================================================================================

e| |--------------------|-----------------------|--------------------|
B| |--------------------|-----------------------|--------------------|
G|4|--------------------|-----------------------|--------------------|
D|/|--------------------|--2---------------4-5--|--------------------|
A|4|--4--------5--------|--0--------2------2-3--|--4--------5--------|
E| |--2--------3--------|-----------0-----------|--2--------3--------|
                                         ...

e|-----------------------|----------------------|----------------------|
B|-----------------------|----------------------|---------------     --|
G|-----------------------|--11------ \ 7--------|---------------     --|
D|-----------2-----------|--11------ \ 7--------|------------*--     --|
A|--2--------0------4-5--|--9------- \ 5--------|--7------ \ 5--     --|
E|--0---------------2-3--|----------------------|--5------ \ 3---------|
                   ...

e| |----------------|
B| |----------------|
G|2|----------------|
D|/|--4--4---5--5---|
A|4|--2--2---3--3---|
E| |----------------|
    ...    ...

e| |----------------------------------------------------------------|
B| |----------------------------------------------------------------|
G|4|----------------------------------------------------------------|
D|/|---4--4-4-4-4-4-4-(5\4)----4--4--4-4-4-4-4-4-4-4-(5\4)----4--4--|
A|4|---2--2-2-2-2-2-2-(3\2)----0--2--2-2-2-2-2-2-2-2-(3\2)----0--2--|
E| |----------------------------------------------------------------|
         ...........                ...............

e|--------------------|-----------------------|--------------------|
B|--------------------|-----------------------|--------------------|
G|--------------------|-----------------------|--------------------|
D|--------------------|--2---------------4-5--|--------------------|
A|--4--------5--------|--0--------2------2-3--|--4--------5--------|
E|--2--------3--------|-----------0-----------|--2--------3--------|
                                        ...

e|-----------------------|----------------------|----------------------|
B|-----------------------|----------------------|---------------     --|
G|-----------------------|--11------ \ 7--------|---------------     --|
D|-----------2-----------|--11------ \ 7--------|------------*--     --|
A|--2--------0------4-5--|--9------- \ 5--------|--7------ \ 5--     --|
E|--0---------------2-3--|----------------------|--5------ \ 3---------|
                   ...

e| |-------------------------|
B| |-------------------------|
G|2|-------------------------|
D|/|--x-x-x--x--x-x-x--x--5--|
A|4|--x-x-x--x--x-x-x--x--3--|
E| |-------------------------|

e| |----------------------------------------------------------------|
B| |----------------------------------------------------------------|
G|4|----------------------------------------------------------------|
D|/|---4--4-4-4-4-4-4-(5\4)----4--4--4-4-4-4-4-4-4-4-(5\4)----4--4--|
A|4|---2--2-2-2-2-2-2-(3\2)----0--2--2-2-2-2-2-2-2-2-(3\2)----0--2--|
E| |----------------------------------------------------------------|
         ...........                ...............

e|--------------------------------------------------------------|
B|--------------------------------------------------------------|
G|--------------------------------------------------------------|
D|--4-4-4-4-4-4-4-4-(5\4)----4--4--4-4-4-4-4-4-4-4--------5--4--|
A|--2-2-2-2-2-2-2-2-(3\2)----0--2--2-2-2-2-2-2-2-2--3--2--------|
E|--------------------------------------------------------------|
   ...............                ...........................

e|----------------------|
B|---- -------- --------|
G|---- -------- --------|
D|--*- -----*-- --------|
A|--2- -----2-- -----2--|
E|--0---3-3-0----3-3-0--|
       ...      ...

e|-----------------------------------------------------|
B|-----------------------------------------------------|
G|-----------------------------------------------------|
D|--4--4-4-4-4-4-4-4--4--4--4--5----5--5--4--4---------|
A|--2--2-2-2-2-2-2-0--2--0--2--3----3--3--2--2---------|
E|----------------------------------------------3-3-0--|
      ......................       .................

e| |------------------------||
B| |------------------------||
G|2|------------------------||
D|/|--------------*---------||
A|4|--2-----------2----2----||
E| |--0----3-3-0--0----0----||
          .....

Dear mother, dear father
What is this hell you have put me through?
Believer, deceiver
Day in, day out, live my life through you
Pushed onto me what's wrong or right
Hidden from this thing that they call "life"

Dear mother, dear father
Every thought I think you disapprove
Curator, dictator
Always censoring my every move
Children are seen but are not heard
Tear out everything inspired

================================================================================
Part 3: Guitars 1 & 2                                     [ Time 01:56 - 02:18 ]
================================================================================

e||---------------------------------------------------|
B||------------------------------------------- -------|
G||------------------------------------------- -------|
D||----------------------------------------*-- --9- \ |
A||--2-2-2--2--2--2-2-2--2--2--2-----------2-- --7- \ |
E||--0-0-0--0--0--0-0-0--0--0--0----3-3-0--0----------|
    ........................       .....

e|-----------------------------------------------|
B|-----------------------------------------------|
G|-----------------------------------------------|
D|---------7-----------7---------------*---------|
A|--5-5-5--5----5-5-5--5----2----------2----2----|
E|--------------------------0---3-3-0--0----0----|
   .....       .....           .....

e|---------------------------------------------------|
B|------------------------------------------- -------|
G|------------------------------------------- -------|
D|----------------------------------------*-- --9- \ |
A|--2-2-2--2--2--2-2-2--2--2--2-----------2-- --7- \ |
E|--0-0-0--0--0--0-0-0--0--0--0----3-3-0--0----------|
   ........................       .....

e| |-----------------------------------------------|
B| |-----------------------------------------------|
G|7|-----------------------------------------------|
D|/|--4-4-4--5----5----4-4-4--4-4-4--4-4-4--4-4-4--|
A|8|--2-2-2--3----3----2-2-2--2-2-2--2-2-2--2-2-2--|
E| |-----------------------------------------------|
     .....            ..........................

e| |---------------------------------------------------------------|
B| |---------------------------------------------------------------|
G|4|---------------------------------------------------------------|
D|/|--4--4-4-4-4-4-4-(5\4)----4--4--4-4-4-4-4-4-4-4-(5\4)----4--4--|
A|4|--2--2-2-2-2-2-2-(3\2)----0--2--2-2-2-2-2-2-2-2-(3\2)----0--2--|
E| |---------------------------------------------------------------|
        ...........                ...............

e|--------------------------------------------------------------|
B|--------------------------------------------------------------|
G|--------------------------------------------------------------|
D|--4-4-4-4-4-4-4-4-(5\4)----4--4--4-4-4-4-4-4-4-4--------5--4--|
A|--2-2-2-2-2-2-2-2-(3\2)----0--2--2-2-2-2-2-2-2-2--3--2--------|
E|--------------------------------------------------------------|
   ...............                ........................

e|-------------------------------------------------------------|
B|-------------------------------------------------------------|
G|-------------------------------------------------------------|
D|--4--4-4-4-4-4-4-(5\4)----4--4--4-4-4-4-4-4-4-4-(5\4)-----4--|
A|--2--2-2-2-2-2-2-(3\2)----0--2--2-2-2-2-2-2-2-2-(3\2)-----0--|
E|-------------------------------------------------------------|
      ...........                ...............          ...

e|-------------------------------------------------------------|
B|-------------------------------------------------------------|
G|-------------------------------------------------------------|
D|--4--4-4-4-4-4-4-(5\4)----4--4--4-4-4-4-4-4-4-4--------5--4--|
A|--2--2-2-2-2-2-2-(3\2)----0--2--2-2-2-2-2-2-2-2--3--2--------|
E|-------------------------------------------------------------|
      ...........                ...........................

e| |------------------------||
B| |------------------------||
G|2|------------------------||
D|/|--------------*---------||
A|4|--2-----------2----2----||
E| |--0----3-3-0--0----0----||
          .....

Innocence torn from me without your shelter
Barred reality
I'm living blindly

================================================================================
Part 4: Repeat Part 2                                     [ Time 02:18 - 03:02 ]
================================================================================

Dear mother, dear father
Time has frozen still what's left to be
Hear nothing, say nothing
Cannot face the fact I think for me
No guarantee, it's life "as is"
But damn you for not giving me my chance

Dear mother, dear father
You clipped my wings before I learned to fly
Unspoiled, unspoken
I've outgrown that fucking lullaby
Same thing I've always heard from you
"Do as I say, not as I do"

================================================================================
Part 5: Repeat Part 3 with the following variations       [ Time 03:02 - 03:23 ]
================================================================================

Replace the last bar with the following:

e| |------------------------------------------------------------------------||
B| |------------------------------------------------------------------------||
G|5|------------------------------------------------------------------------||
D|/|--4--4-4-4-4-4-4-(5\4)----4--4--4-4-4-4-4-4-4-4-4--5--4--5--------------||
A|4|--2--2-2-2-2-2-2-(3\2)----0--2--2-2-2-2-2-2-2-2-2--3--2--3--0--3--0--3--||
E| |------------------------------------------------------------0--1--0--1--||
        ...........                ......................................

================================================================================
Part 6: Guitars 1 & 2                                     [ Time 03:23 - 03:37 ]
================================================================================

e| |----------------------------------------|
B| |-------------------------------------  -|
G|7|-------------------------------------  -|
D|/|-----------------------------------*-  -|
A|8|--2----x--x--3----x--x--2----x--x--5-  -|
E| |--0----x--x--1----x--x--0----x--x--3----|

e|-----------------------------------------|
B|-----------------------------------------|
G|-----------------------------------------|
D|-----------------------------------------|
A|--2----x--x--3----x--x--2----x--x--------|
E|--0----x--x--1----x--x--0----x--x--0--1--|
                                    ....

e|----------------------------------------|
B|-------------------------------------  -|
G|-------------------------------------  -|
D|-----------------------------------*-  -|
A|--2----x--x--3----x--x--2----x--x--5-  -|
E|--0----x--x--1----x--x--0----x--x--3----|

e|-----------------------------------------|
B|-----------------------------------------|
G|-----------------------------------------|
D|-----------------------------------------|
A|--2----x--x--3----x--x--2----------------|
E|--0----x--x--1----x--x--0----0--1--0--1--|
                              ..........

e|----------------------------------------|
B|-------------------------------------  -|
G|-------------------------------------  -|
D|-----------------------------------*-  -|
A|--2----x--x--3----x--x--2----x--x--5-  -|
E|--0----x--x--1----x--x--0----x--x--3----|

e| |-----------------------------------------------------||
B| |-----------------------------------------------------||
G|9|-----------------------------------------------------||
D|/|-----------------------------------------4--5--4--5--||
A|8|--2----x--x--3----x--x--2----------------2--3--2--3--||
E| |--0----x--x--1----x--x--0----0--1--0--1--------------||
                                ......................

================================================================================
Guitar Solo: Guitars 1, 2 & Lead Guitar                   [ Time 03:37 - 04:23 ]
================================================================================

--------------
Guitars 1 & 2:
--------------

e||---------------------------------------------------------------|
B||---------------------------------------------------------------|
G||---------------------------------------------------------------|
D||-----------------(3\2)----0--2------------------(3\2)----0--2--|
A||--2--2-2-2-2-2-2-(3\2)----0--2--2-2-2-2-2-2-2-2-(3\2)----0--2--|
E||--0--0-0-0-0-0-0----------------0-0-0-0-0-0-0-0----------------|
       ...........                ...............

e|------------------------------------------------------------| |
B|------------------------------------------------------------| |
G|------------------------------------------------------------|*|
D|-----------------(3\2)----0--2------------------------------|*| x 2
A|--2--2-2-2-2-2-2-(3\2)----0--2--2-2-2-2-2-2-2-2-2--3--2--3--| |
E|--0--0-0-0-0-0-0----------------0-0-0-0-0-0-0-0-0--1--0--1--| |
      ...........                ..........................

e||---------------------------------------------------------------|
B||---------------------------------------------------------------|
G||---------------------------------------------------------------|
D||---------------------------------------------------------------|
A||--4--4-4-4-4-4-4-(5\4)----4--4--4-4-4-4-4-4-4-4-(5\4)----4--4--|
E||--2--2-2-2-2-2-2-(3\2)----0--2--2-2-2-2-2-2-2-2-(3\2)----0--2--|
       ...........                ...............

 |_____________________________________________________________[1]
e|-------------------------------------------------------------| |
B|-------------------------------------------------------------| |
G|-------------------------------------------------------------|*|
D|-------------------------------------------------------------|*| x 2
A|--4-4-4-4-4-4-4-4-(5\4)----4--4--4-4-4-4-4-4-4-4-4--5--4--5--| |
E|--2-2-2-2-2-2-2-2-(3\2)----0--2--2-2-2-2-2-2-2-2-2--3--2--3--| |
   ...............                ..........................

 |____________________________________________________________________________[2]
e| |----------------------------------------------------------------------------|
B| |----------------------------------------------------------------------------|
G|5|----------------------------------------------------------------------------|
D|/|----------------------------------------------------------------------------|
A|4|--4-4-4-4-4-4-4-4-(5\4)----4--4--4-4-4-4-4-4-4--4-4-4--4-4-4--4-4-4--4-4-4--|
E| |--2-2-2-2-2-2-2-2-(3\2)----0--2--2-2-2-2-2-2-2--2-2-2--2-2-2--2-2-2--2-2-2--|
     ...............                .........................................

e| |--------------------|-----------------------|
B| |--------------------|-----------------------|
G|4|--------------------|-----------------------|
D|/|--------------------|--2---------------4-5--|
A|4|--4--------5--------|--0--------2------2-3--|
E| |--2--------3--------|-----------0-----------|
                                          ...

e|---------------------------------------------------------------|
B|---------------------------------------------------------------|
G|---------------------------------------------------------------|
D|---------------------------------------------------------------|
A|--4--4-4-4-4-4-4-(5\4)----4--4--4-4-4-4-4-4-4-4-(5\4)----4--4--|
E|--2--2-2-2-2-2-2-(3\2)----0--2--2-2-2-2-2-2-2-2-(3\2)----0--2--|
      ...........                ...............

e| |----------------------------------------------------------------------------|
B| |----------------------------------------------------------------------------|
G|5|----------------------------------------------------------------------------|
D|/|----------------------------------------------------------------------------|
A|4|--4-4-4-4-4-4-4-4-(5\4)----4--4--4-4-4-4-4-4-4--4-4-4--4-4-4--4-4-4--4-4-4--|
E| |--2-2-2-2-2-2-2-2-(3\2)----0--2--2-2-2-2-2-2-2--2-2-2--2-2-2--2-2-2--2-2-2--|
     ...............                .........................................

e| |------------------------------|
B| |------------------------------|
G|2|------------------------------|
D|/|------------------------------|
A|4|--4-4-4--4-4-4--4-4-4--4-4-4--|
E| |--2-2-2--2-2-2--2-2-2--2-2-2--|
     ..........................

e| |---------------------------------------------------------------|
B| |---------------------------------------------------------------|
G|4|---------------------------------------------------------------|
D|/|-----------------(3\2)----0--2------------------(3\2)----0--2--|
A|4|--2--2-2-2-2-2-2-(3\2)----0--2--2-2-2-2-2-2-2-2-(3\2)----0--2--|
E| |--0--0-0-0-0-0-0----------------0-0-0-0-0-0-0-0----------------|
        ...........                ...............

e|------------------------------------------------------------|
B|------------------------------------------------------------|
G|------------------------------------------------------------|
D|-----------------(3\2)----0--2------------------------------|
A|--2--2-2-2-2-2-2-(3\2)----0--2--2-2-2-2-2-2-2-2-2--3--2--3--|
E|--0--0-0-0-0-0-0----------------0-0-0-0-0-0-0-0-0--1--0--1--|
      ...........                ..........................

e|----------------------|---------------------------------------|
B|----------------------|---------------------------------------|
G|--11------ \ 7--------|---------------------------------------|
D|--11------ \ 7--------|---------------------------------------|
A|--9------- \ 5--------|--7------------------------------------|
E|----------------------|--5--------3-3-3--3-3-3--3-3-3--3-3-3--|
                                   ..........................

e|-------------------------------------------| |-------------||
B|---------------------------------     -----| |-----      --||
G|---------------------------------     -----|2|-----      --||
D|------------------------------*--     -----|/|--*--      --||
A|------------------------------5--     --5--|4|--5--      --||
E|--3-3-3--3-3-3--3-3-3--3-3-3--3---------3--| |--3----------||
   ..........................           ...

------------
Lead Guitar: with wha, delay and distortion
------------

 //     Segue From Part 6      \\
e| |---------------------------| |
B| |--               ----------| |
G|9|--               --(14b16)-|4|
D|/|--               ----------|/|
A|8|--               ----------|4|
E| |---------------------------| |

e|--------12--------------12--------------12-----------------12--------|
B|--12-------15 p12----------15 p12---------12h15p 12-----------15 p12-|
G|-(14b16)---------(14b16)---------(14b16)------------(14b16)----------|
D|---------------------------------------------------------------------|
A|---------------------------------------------------------------------|
E|---------------------------------------------------------------------|

e|-15p12----12-15p12-12-12-15p12---12-(15p12/14)----|
B|-------15----------x----------15---------------14-|
G|--------------------------------------------------|
D|--------------------------------------------------|
A|--------------------------------------------------|
E|--------------------------------------------------|

          |__3___|                  |__3___|
e|--17p14-17p14-------19 p14--17p14-17p14----19--14/ (22b24)---(22b24)~~----|
B|-------------(17b19)--------------------16----------------------------- --|
G|----------------------------------------------------------------------- --|
D|----------------------------------------------------------------------- --|
A|----------------------------------------------------------------------- --|
E|--------------------------------------------------------------------------|

    % - Gradually pull bar up 1 & 1/4 steps
e|--%------------------------|
B|--12------------12---------|
G|--12------------12---------|
D|--12------------12-14~~-12-|
A|---------------------------|
E|---------------------------|

e|-----------------------------------------------------------------|
B|-------------------------------------------------------------  --|
G|-------------------------------------------------------------  --|
D|--12h14-12---------------------------------------------------  --|
A|-----------14--13--12--10--12--(12b 13r12)-10h12-12--10------  --|
E|---------------------------------------------------------12~~----|

e|------------------------------------(14h15p |
B| / 15-----14---15p14-----14-15--17----------|
G|---------------------16---------------------|
D|--------------------------------------------|
A|--------------------------------------------|
E|--------------------------------------------|

e| 14)----(15/17)--(17/19)---(17p15p14)--------(14/|
B|-----17-------------------------------17-15\ ----|
G|-------------------------------------------------|
D|-------------------------------------------------|
A|-------------------------------------------------|
E|-------------------------------------------------|

e| 17)--(15\14)-15p14------------------------------|
B|-------------------15p14--17-17--15-14h15--14----|
G|----------------------------------------------16-|
D|-------------------------------------------------|
A|-------------------------------------------------|
E|-------------------------------------------------|

e|-----------------------------------------|
B|-14--------------------------------------|
G|---16--14-(16b18p14)----14h16~~-------14-|
D|--------------------16------------/16----|
A|-----------------------------------------|
E|-----------------------------------------|

 //     Let Ring     \\
e|---------------------------------------------------------------------|
B|--17----17\ ---15\ --14----------------------------------------------|
G|-----13-----11-----9----9/ (16p14 p13)-(14p13 p11)-(14p13 p11)-------|
D|---------------------------------------------------------------12~~--|
A|---------------------------------------------------------------------|
E|---------------------------------------------------------------------|

e| |----------------------------------------------------------------------------|
B| |------------------------------------------------------------------        --|
G|5|------------------------------------------------------------------        --|
D|/|--(14p12 p11)-(<12>p11p9\7)-9b10-(7\6)--7 \ 4-6p4---4-------------        --|
A|4|--------------------------------------------------7----7 \ 4 /9 \-        --|
E| |----------------------------------------------------------------------------|

e|-------------------------------------|----------------------------------------|
B|-------------------------------------|----------------------------------------|
G|---------6-6h7-6-------4-5--5h7-5--4-|----6-7--7h9-7--6-7-(6h7p6)--4----------|
D|-------7----------7-5----------------| /7-----------------------------7--5--4-|
A|-- /9--------------------------------|----------------------------------------|
E|-------------------------------------|----------------------------------------|

                                |_3_|             |_3_|
e|----------------------------------------------------------------------|
B|----------------------------------------------------------------------|
G|----------------------------------------------------------------------|
D|--5p4p0-5p4p0-5p4p0-5p4p0-5p4-5p4p0-7p5p0-7p5p0-7p5p0-7p5p0-7p5-7p5p0-|
A|----------------------------------------------------------------------|
E|----------------------------------------------------------------------|

                |_3_|             |__3_|             |__3__|
e|------------------------------------------------------------------------|
B|-------------------------------------------------------------------   --|
G|-----------------------------------------------------------11-- \--   --|
D|--9p7p0-9p7p0-9p7p0-11p9p0-11p9-11p9p0-12p11-12p11-12p11p0---------   --|
A|-------------------------------------------------------------------   --|
E|------------------------------------------------------------------------|

e| |-----------|
B| |--       --|
G|2|--       --|
D|/|--       --|
A|4|--       --|
E| |-----------|

e| |--17p12-----12-17p12-12-17p12-12h17 p12----12-17p12-12h|
B| |---------15-----------------------------15-------------|
G|4|-------------------------------------------------------|
D|/|-------------------------------------------------------|
A|4|-------------------------------------------------------|
E| |-------------------------------------------------------|

                                   |__3__|
e|-17 p12----17 p12-12------17p12--17p12---17p12h17-12----|
B|--------15----------------------------15-------------15-|
G|--------------------------------------------------------|
D|--------------------------------------------------------|
A|--------------------------------------------------------|
E|--------------------------------------------------------|

    |__3__| |__3__| |__3__| |__3__| |__3__| |__3__| |__3__| |__3__|
e|--19p15p0-19p15p0-19p15p0-19p15p0-19p15p0-19p15p0-19p15p0-19p15p0-|
B|------------------------------------------------------------------|
G|------------------------------------------------------------------|
D|------------------------------------------------------------------|
A|------------------------------------------------------------------|
E|------------------------------------------------------------------|

   |__3__| |__3__| 
e|-19p15p0-19p15p0-19 p15 p0-19 /(22b25)--(22b25)--|
B|---------------------------0---------------------|
G|-------------------------------------------------|
D|-------------------------------------------------|
A|-------------------------------------------------|
E|-------------------------------------------------|

                       |___3__|  |__3__|
e|----------------------------------------|
B|------------------- /10--8--7-----------|
G|--------6-6h7-6----------------9--7--6--|
D|-----7-----------7----------------------|
A|--9-------------------------------------|
E|----------------------------------------|

    |__3__|  |__3__|   |_3_|
e|-------------------------------------------------------|
B|-------------------------------------------------------|
G|--4--6--4-----4----------------------------------------|
D|-----------7-----7 \ 5-5-5-5 /7-7/9-9--9-9-10-10-10/12-|
A|-------------------------------------------------------|
E|-------------------------------------------------------|

e|----------------------------------------|
B|----------------------------------------|
G|----------------------------------------|
D|--12-12-12/14-14--14/16-16-16-16-17-17\ |
A|----------------------------------------|
E|----------------------------------------|

                           |_3_|
|--------------------------------------------|
|(8 h10 p 8 p0 h7h8 p7 p 0h5h7p5p0h3h5p3p0)--|
|--------------------------------------------|
|--------------------------------------------|
|--------------------------------------------|
|--------------------------------------------|

     |_3_|     |__3__|    |_3_|
e|-------------------------------------------------||
B|-------------------------------------------------||
G|--(4h5p4p0 h 4h5h7p5p0 h6/7h9p7 p0 h7/9-11p9p0)--||
D|-------------------------------------------------||
A|-------------------------------------------------||
E|-------------------------------------------------||

================================================================================
Part 7: Guitars 1 & 2                                     [ Time 04:23 - 04:50 ]
================================================================================

e||------------------------------------------------------------|
B||------------------------------------------------------------|
G||------------------------------------------------------------|
D||----------------(3\2)----0--2----------------(3\2)----0--2--|
A||--2--2-2-2--2-2-(3\2)----0--2--2--2-2-2--2-2-(3\2)----0--2--|
E||--0--0-0-0--0-0----------------0--0-0-0--0-0----------------|
    .............                .............

e|---------------------------------------------------------|
B|---------------------------------------------------------|
G|---------------------------------------------------------|
D|----------------(3\2)----0--2----------------------------|
A|--2--2-2-2--2-2-(3\2)----0--2--2--2-2-2--2-2-2--3--2--3--|
E|--0--0-0-0--0-0----------------0--0-0-0--0-0-0--1--0--1--|
   .............                ........................

e|---------------------------------------------------------|
B|---------------------------------------------------------|
G|---------------------------------------------------------|
D|----------------(3\2)----0--2----------------(3\2)----0--|
A|--2--2-2-2--2-2-(3\2)----0--2--2--2-2-2--2-2-(3\2)----0--|
E|--0--0-0-0--0-0----------------0--0-0-0--0-0-------------|
   .............                .............         ...

e|------------------------------------------------------|
B|-------------------------------------------------- ---|
G|-------------------------------------------------- ---|
D|--2-------------(3\2)----0--2-------------------*- ---|
A|--2--2-2-2--2-2-(3\2)----0--2--2--2-2-2--2-2-2--3- -3-|
E|-----0-0-0--0-0----------------0--0-0-0--0-0-0--1---1-|
      ..........                ...............

e|------------------------------------------------------------|
B|------------------------------------------------------------|
G|------------------------------------------------------------|
D|----------------(3\2)----0--2----------------(3\2)----0--2--|
A|--2--2-2-2--2-2-(3\2)----0--2--2--2-2-2--2-2-(3\2)----0--2--|
E|--0--0-0-0--0-0----------------0--0-0-0--0-0----------------|
   .............                .............

e|---------------------------------------------------------|
B|---------------------------------------------------------|
G|---------------------------------------------------------|
D|----------------(3\2)----0--2----------------------------|
A|--2--2-2-2--2-2-(3\2)----0--2--2--2-2-2--2-2-2--3--2--3--|
E|--0--0-0-0--0-0----------------0--0-0-0--0-0-0--1--0--1--|
   .............                ........................

e|---------------------------------------------------------|
B|---------------------------------------------------------|
G|---------------------------------------------------------|
D|----------------(3\2)----0--2----------------(3\2)----0--|
A|--2--2-2-2--2-2-(3\2)----0--2--2--2-2-2--2-2-(3\2)----0--|
E|--0--0-0-0--0-0----------------0--0-0-0--0-0-------------|
   .............                .............         ...

e|---------------------------------------------------------|
B|---------------------------------------------------------|
G|---------------------------------------------------------|
D|----------------(3\2)----0--2----------------------------|
A|--2--2-2-2--2-2-(3\2)----0--2--2--2-2-2--2-2-2--3--2--3--|
E|--0--0-0-0--0-0----------------0--0-0-0--0-0-0--1--0--1--|
   .............                ........................

e| |----------------------------------------|
B| |----------------------------------------|
G|7|----------------------------------------|
D|/|-------------*----------------*---------|
A|8|--2----------2----2-----------2----2----|
E| |--0---3-3-0--0----0----3-3-0--0----0----|
         .....            .....

e|-----------------------------------------|
B|--------  -------  ----------------------|
G|--------  -------  ----------------------|
D|------*-  -----*-  -----*----------------|
A|------2-  -----2-  -----2----------------|
E|--3-3-0----3-3-0----3-3-0--0-0-0--0-0-0--|
   ...      ...      ...    ............

e| |--------------------------------------||
B| |--------------------------------------||
G|3|--------------------------------------||
D|/|----------------------------*---------||
A|4|----------------2-----------2----2----||
E| |--0-0-0--0-0-0--0----3-3-0--0----0----||
     ............       .....

I'm in hell without you
Cannot cope without you two
Shocked at the world that I see
Innocent victim, please rescue me

================================================================================
Part 8: Guitars 1 & 2                                     [ Time 04:50 - 05:13 ]
================================================================================

e| |--------------------|-----------------------|--------------------|
B| |--------------------|-----------------------|--------------------|
G|4|--------------------|-----------------------|--------------------|
D|/|--------------------|--2---------------4-5--|--------------------|
A|4|--4--------5--------|--0--------2------2-3--|--4--------5--------|
E| |--2--------3--------|-----------0-----------|--2--------3--------|
                                          ...

e|-----------------------|----------------------|----------------------|
B|-----------------------|----------------------|---------------     --|
G|-----------------------|--11------ \ 7--------|---------------     --|
D|-----------2-----------|--11------ \ 7--------|------------*--     --|
A|--2--------0------4-5--|--9------- \ 5--------|--7------ \ 5--     --|
E|--0---------------2-3--|----------------------|--5------ \ 3---------|
                   ...

e| |-------------------------|--------------------------|
B| |-------------------------|--------------------------|
G|2|-------------------------|--------------------------|
D|/|--x-x-x--x--x-x-x--x--5--|--4--5--4--5--------------|
A|4|--x-x-x--x--x-x-x--x--3--|--2--3--2--3--0--3--0--3--|
E| |-------------------------|--------------0--1--0--1--|
                               ......................

e| |--------------------------------------|
B| |--------------------------------------|
G|7|--------------------------------------|
D|/|--------------------------------------|
A|8|--2----------3----------2----------5--|
E| |--0----0--0--1----0--0--0----0--0--3--|
          ....       ....       ....

e|-----------------------------------------| |------||
B|-----------------------------------------| |------||
G|-----------------------------------------|1|------||
D|-----------------------------------------|/|--*---||
A|--2----------3----------2-------3-----3--|8|--2---||
E|--0----0--0--1----0--0--0----0--1--0--1--| |--0---||
        ....       ....       ..........

Dear mother, dear father
Hidden in your world you've made for me
I'm seething, I'm bleeding
Ripping wounds in me that never heal
Undying spite I feel for you
Living out this hell you always knew

================================================================================
End
================================================================================

Tab summary:        [Intro]
                    [Part 1]
                    [Part 2]
                    [Part 3]
                    [Part 4]
                    [Part 5]
                    [Part 7]
                    [Guitar Solo]
                    [Part 8]
                    [END]

================================================================================

| /    Slide up
| *    Natural harmonic
| x    Dead note
| (n)  Ghost note
| \    Slide down
| b    Bend
| h    Hammer-on
| p    Pull-off
| ~    Vibrato
| r    Release

================================================================================

            
            
Suggest correction
Creating personal tab
Creating personal tab
You can edit any tab online and save it as your Personal.

You can edit, replace or remove any tab part or add personal notes – all changes will be seen only by you.

Personal tabs can be accessed anytime from any device, even offline.
Learn more »
comments
print report bad tab
guest
You may want to rate the tab now too:
select rating
Wanna post a correction for this tab? Suggest correction