Oops, an error
Loading. Please wait.
We have an official Enter Sandman tab made by UG professional guitarists. Check out the tab »
×
219,696 views 597 this week
18 commentsread comments
1 2 3 4 5
x 59
add to favorites
×
Save as Personal and add changes to this tab that will be seen only by you. Learn more ›
×
You can save this tab as Personal to edit and correct it or add notes. All changes will be seen only by you. Learn more »
launch autoscroll
font size
0
reset
how to read this tab
guitar tuner
backing track
0:00
0:00
edit
Autoscroll
slow
fast
+/-
esc
set tempo
stop
Author/Artist: Metallica
Tittle: Enter Sandman (Intro)
Album: Metallica(black)
 
[Intro]

e|-----------------------------|
B|-----------------------------|
G|-----------------------------|
D|--------5--------------------| 
A|-----7-----------7-----------| 
E|--0--------6--5--------------|(x12)
                               
e|-----------------------------|                                                            
B|-----------------------------|
G|-----------------------------|
D|-----------------------------|
A|-2---------------/7----------|
E|-0---0-0-0-0-0-0-------------|
      PM---------| 

e|-----------------------------|
B|-----------------------------|
G|-----------------------------|
D|-----------------------------|
A|----------------/7-----------|
E|-0-0-0-0-0-0-0---------------|(x3)
  PM------------| 

e|-----------------------------|
B|-----------------------------|
G|-----------------------------|
D|-----------------------------|
A|------/7------------3--------| 
E|--0-0----6---0-0-0--1--------|(x4)
   PM--|     
 
e|-----------------------------|
B|-----------------------------|
G|-----------------------------|
D|-----------------------------|
A|-----/7-----------3----------| 
E|-0-0----6-5--0-0--1----------|(x6)
       
e|-----------------------------|
B|-----------------------------|
G|-----------------------------|
D|-----------------------------|
A|------/7---------------------|
E|--0-0-----6-5---0-0----------|
         
e|------------------------------------------------------------------|
B|------------------------------------------------------------------|
G|------------------------------------------------------------------|
D|------------------------------------------------------------------|
A|-2--/7----------2-2-/7---------2-2-/7---------5---4---4--5--4--2--| 
E|-0------6-5--0--0-0-----6-5-0--0-0-----6-5-0--3-0-2-0-2--3--2--0--|(x2)



************************************

| /  Slide up 
| PM palm mute

************************************

            
            
Suggest correction
Creating personal tab
Creating personal tab
You can edit any tab online and save it as your Personal.

You can edit, replace or remove any tab part or add personal notes – all changes will be seen only by you.

Personal tabs can be accessed anytime from any device, even offline.
Learn more »
comments
print report bad tab
18 comments total. Showing first comments.
0 reply
skatrix247 90 Mar 03, 2002 07:00 PM

considering you copied it out of a tab book, why not the whole thing?

-1 reply
colorado25 0 Mar 03, 2002 07:00 PM

jathhat = ass

+2 reply
Erikly 0 Mar 04, 2002 07:00 PM

Do the whole damn thing

guest
You may want to rate the tab now too:
select rating
Wanna post a correction for this tab? Suggest correction