Oops, an error
Loading. Please wait.
We have an official Fight Fire With Fire tab made by UG professional guitarists. Check out the tab »
×

Fight Fire With Fire intro tab

version 1
version 1

Intro

  • All parts are tabbed to be played by one guitar.

Whole song

781 views 21 this week
1 commentread comment
1 2 3 4 5
2 more votes to show rating
add to favorites
×
Save as Personal and add changes to this tab that will be seen only by you. Learn more ›
×
You can save this tab as Personal to edit and correct it or add notes. All changes will be seen only by you. Learn more »
launch autoscroll
font size
0
reset
how to read this tab
guitar tuner
backing track
0:00
0:00
edit
Autoscroll
slow
fast
+/-
esc
set tempo
stop
Author
Difficulty
About this tab version
All parts are tabbed to be played by one guitar. Was this info helpful? Yes No
D(C-shape)    A half barre 5th pos. open A string  
e|-------------------------5-------------------|
B|----3--------------------5-------------------|
G|----2--------------------6-------------------|
D|----4--------------------7-------------------|
A|----5--------------------0-------------------|
E|---------------------------------------------|

[Intro]
e|--------------------------------------------0-------------|
B|--0----1----3----5--6--5h6p5----3----1p0-------0----------|
G|--0----2----4----5--------------4----2------------1--1h2--|
D|--------------------------------------------2--------2----|
A|-------0----2----3--------------2----0--------------------|
E|--3-------------------------------------------------------|

D(C-shape)
e|---------------------------------------|
B|--------3--------3---------------------|
G|-----2--2-----2--2---------------------|
D|--4--4-----4--4------------------------|
A|--5--------5---------------------------|
E|---------------------------------------|

e|--------------------------------------------------------|
B|--0----1----3----5--6--5h6p5----3----1p0----0-----3--2--|
G|--0----2----4----5--------------4----2---------2--------|
D|--------------------------------------------------------|
A|-------0----2----3--------------2----0------2--------2--|
E|--3-----------------------------------------------------|

(A fifth position, open A string)
e|--------5---------5--|
B|-----5--5------5--5--|
G|--6--6------6--6-----|
D|--7---------7--------|
A|--0------------------|
E|---------------------|
                                                                       
e|--------------------------------------------5--------5----|
B|--0----1----3----5--6--5h6p5----3----1p0-------5----------|
G|--0----2----4----5--------------4----2------------6--6h7--|
D|--------------------------------------------7--------7----|
A|-------0----2----3--------------2----0--------------------|
E|--3-------------------------------------------------------|

(G barre 3rd fret)
e|--------3--------3--|
B|-----3--3-----3--3--|
G|--4--4-----4--4-----|
D|--5--------5--------|
A|--------------------|
E|--------------------|
                                           
e|-----------------------------------------------------3--|
B|--0----1----3----5--6--5h6p5----3----1p0----------3-----|
G|--0----2----4----5--------------4----2---------4--------|
D|--------------------------------------------5-----------|
A|-------0----2----3--------------2----0------------------|
E|--3-----------------------------------------0-----------|

e|--------3-----------7--10-8--|
B|-----3-----3--8--5-----------|
G|--4-----------5--------------|
D|-----------------7--5--------|
A|-----------------------8--7--|
E|--3--------------------------|


************************************

| h  Hammer-on
| p  Pull-off

************************************

            
            
Suggest correction
Creating personal tab
Creating personal tab
You can edit any tab online and save it as your Personal.

You can edit, replace or remove any tab part or add personal notes – all changes will be seen only by you.

Personal tabs can be accessed anytime from any device, even offline.
Learn more »
Give kudos to tab author, rate the tab!
1 2 3 4 5
comments
print report bad tab
1 comment total.
0 reply
Ratchet9868 10 Mar 08, 2017 06:31 AM

Thank you very much for this!
Sounds way better than the way i was playing it.

guest
You may want to rate the tab now too:
select rating
Wanna post a correction for this tab? Suggest correction