Oops, an error
Loading. Please wait.
We have an official For Whom The Bell Tolls tab made by UG professional guitarists. Check out the tab »
×

For Whom The Bell Tolls tab

836,308 views 1,281 this week
124 commentsread comments
1 2 3 4 5
x 214
add to favorites
×
Save as Personal and add changes to this tab that will be seen only by you. Learn more ›
×
You can save this tab as Personal to edit and correct it or add notes. All changes will be seen only by you. Learn more »
launch autoscroll
font size
0
reset
how to read this tab
guitar tuner
backing track
0:00
0:00
edit
Autoscroll
slow
fast
+/-
esc
set tempo
stop
Author
Unregistered
[Intro]

(1st guitar)

F#5 F#5 E5

  
(2nd guitar)

e|------------|-------------------| 
B|------------|-------------------|
G|------------|-7-6-5-4-----7-----| 
D|-4-4-4-4----|---------5-4-------|
A|-4-4-4-4----|---------------5-4-|
E|-2-2-2-2----|-------------------|(x8)


[Fig. 1 (both guitars)]

e|---------------|
B|---------------|
G|---------------|      
D|-4-4-4-4----2--| 
A|-4-4-4-4----2--|
E|-2-2-2-2----0--|(x4)


[Fig. 2 (both guitars)]

e|------------------------------------------|           
B|------------------------------------------|           
G|------------------------------------------|
D|-2-5-4-3--2-5-4-3--2-5-4-3--2-5-4-3---2---|           
A|-2-5-4-3--2-5-4-3--2-5-4-3--2-5-4-3---0---|           
E|-0-3-2-1--0-3-2-1--0-3-2-1--0-3-2-1-------|(x2)         


[Fig. 3]

The 1st guitar plays this:

  E5  G5   C5     A5
e|-----------------------|
B|-----------------------|
G|-----------------------|
D|-2---5----10-----7-----|
A|-2---5----10-----7-----|
E|-0---3----8------5-----|(x8)

... and the 2nd:

e|---------------------------|
B|-8---7-------7-8----7------|
G|---9----7-9------9----7-9--|
D|---------------------------|
A|---------------------------|
E|---------------------------|(x8)


[Chorus]

(Fig. 4 (both guitars))

e|------------------------------------------------------------------------|
B|------------------------------------------------------------------------|
G|--------------------------3---------------------------------3-----------|
D|-------5-------7-------5--3--4--------5-------7-------5-----3--4--3-----|
A|-------5-------7-------5--1--4--------5-------7-------5-----1--4--3-----|
E|-0-0-0-3-0-0-0-5-0-0-0-3-----2--0-0-0-3-0-0-0-5-0-0-0-3-0-0----2--1-----|
PM.....  PM....  PM....         PM....  PM....  PM....
 PM....PM..

 
(Fig. 5 (both guitars))

   E5   G5   C5   A5 
e|--------------------------------------------|
B|--------------------------------------------|
G|--------------------------------------------|
D|--2----5----10---7--------------------------|
A|--2----5----10---7--------------------------|
E|--0----3----8----5--------------------------|


(Repeat Fig. 4)

e|------------------------------------------------------------------------|
B|------------------------------------------------------------------------|
G|--------------------------3---------------------------------3-----------|
D|-------5-------7-------5--3--4--------5-------7-------5-----3--4--3-----|
A|-------5-------7-------5--1--4--------5-------7-------5-----1--4--3-----|
E|-0-0-0-3-0-0-0-5-0-0-0-3-----2--0-0-0-3-0-0-0-5-0-0-0-3-0-0----2--1-----|
PM.....  PM....  PM....         PM....  PM....  PM....


[Interlude]

(Gtr. 1)

E5   B5   G5

(Gtr. 2)

e|-----------------------------------|
B|-----------------------------------|
G|-12-9-11----9----------------------|
D|---------12---11--12-9-11----9-----|
A|--------------------------12---10--|
E|-----------------------------------|

Then Gtr. 1 keep playing the same while Gtr. 2 play
this:

e|-----------7--------------7-(7)-----------7-------------7--------------|
B|-8---7-------8----10-7-8---------8--7-------8----10-7-8---8------------|
G|---9---7-9-----9-------------------9--7-9-----9------------------------|
D|-----------------------------------------------------------------------|
A|-----------------------------------------------------------------------|
E|-----------------------------------------------------------------------|

e|-----------7--------------7-(7)--|
B|-8---7-------8----10-7-8---------|
G|---9---7-9-----9-----------------|
D|---------------------------------|
A|---------------------------------|
E|---------------------------------|(x3)

and at the same time there’s a third guitar that plays
this:
e|------------------------------------------------------|
B|------------------------------------------------------|
G|------------------------------------------------------|
D|-9-----11----9----12-9-11------9----------------------|
A|---12-----12---10----------12-----10------------------|
E|------------------------------------------------------|(x3)


[Chorus]

(Fig. 4 (both guitars))

e|------------------------------------------------------------------------|
B|------------------------------------------------------------------------|
G|--------------------------3---------------------------------3-----------|
D|-------5-------7-------5--3--4--------5-------7-------5-----3--4--3-----|
A|-------5-------7-------5--1--4--------5-------7-------5-----1--4--3-----|
E|-0-0-0-3-0-0-0-5-0-0-0-3-----2--0-0-0-3-0-0-0-5-0-0-0-3-0-0----2--1-----|
PM.....  PM....  PM....         PM....  PM....  PM....


[Outro]

(both guitars):

e|----------------------------|
B|----------------------------|
G|----------------------------|  (repeat and fade)
D|-2--4-4--2--4-4-5-5--2------|
A|-2--4-4--2--4-4-5-5--2------|
E|-0--2-2--0--2-2-3-3--0------|



************************************

| PM   Palm mute
| (n)  Ghost note

************************************

            
            
Suggest correction
Creating personal tab
Creating personal tab
You can edit any tab online and save it as your Personal.

You can edit, replace or remove any tab part or add personal notes – all changes will be seen only by you.

Personal tabs can be accessed anytime from any device, even offline.
Learn more »
comments
print report bad tab
124 comments total. Showing first comments.
0 reply
Memphis J 10 Mar 01, 2002 07:00 PM

Woah, thats a preety damn accurate tab man, now i jst gotta learn it! good job

0 reply
G-man69 10 Mar 09, 2002 07:00 PM

Nice tab man it totally suits the song

0 reply
mark_tom_trav 0 Mar 10, 2002 07:00 PM

buzzin' tab. i just got S & M and this song rocks on it

guest
Wanna post a correction for this tab? Suggest correction