Oops, an error
Loading. Please wait.
We have an official Jump In The Fire tab made by UG professional guitarists. Check out the tab »
×

Jump In The Fire bass

version 4
version 4

Whole song

13 views 1 this week
no commentswrite comment
1 2 3 4 5
3 more votes to show rating
add to favorites
×
Save as Personal and add changes to this tab that will be seen only by you. Learn more ›
×
You can save this tab as Personal to edit and correct it or add notes. All changes will be seen only by you. Learn more »
launch autoscroll
font size
0
reset
guitar tuner
backing track
0:00
0:00
edit
Autoscroll
slow
fast
+/-
esc
set tempo
stop
About this tab version
This is the tab for the studio version. I couldn't find an isolated bass track but I found a version with enhanced bass. https://www.youtube.com/watch?v=1MLdWtdjS34. Was this info helpful? Yes No
[Intro]
G|---------------------------------------------------------------------------|
D|---------------------------------------------------------------------------|
A|--------------------------------------3--1---------------------------------| 
E|--3--3--3--3--1--1--1--1--0--0--0--0---------------------------------------|  
                                                                                 
G|---------------------------------------------------------------------------|  
D|---------------------------------------------------------------------------| 
A|--------------1--1--1--1--/88-0-88-0-8\--0-3--1----------------------------|
E|--3--3--3--3---------------------------------------------------------------|

G|---------------------------------------------------------------------------|
D|---------------------------------------------------------------------------|
A|--------------------------------------3--1---------------------------------| 
E|--3--3--3--3--1--1--1--1--0--0--0--0---------------------------------------| 

G|---------------------------------------------------------------------------|  
D|---------------------------------------------------------------------------| 
A|--------------1--1--1--1--------------0-3--1-------------------------------|
E|--3--3--3--3--------------0--0--0--0---------------------------------------|

[Verse]
G|---------------------------------------------------------------------------|\
D|---------------------------------------------------------------------------| \
A|---------------------------------------------------------------------------|  \
E|--1-3-3-1-3-1-6r--1--1--1--------------------------------------------------|   \
                                                                                  |(x5)
G|---------------------------------------------------------------------------|   /
D|---------------------------------------------------------------------------|  / 
A|--------------3r---x-x-x-x-4r----------------------------------------------| / 
E|--1-3-3-1-3-1--------------------------------------------------------------|/

G|---------------------------------------------------------------------------|
D|---------------------------------------------------------------------------|
A|---------------------------------------------------------------------------| 
E|--1-3-3-1-3-1-6r--1--1--1--------------------------------------------------|

G|---------------------------------------------------------------------------|
D|---------------------------------------------------------------------------|
A|--------------3---4--4-----------------------------------------------------|
E|--1-3-3-1-3-1--------------------------------------------------------------|

[Chorus]
G|---------------------------------------------------------------------------|
D|---------------------------------------------------------------------------|
A|--------------------------------------3--1---------------------------------| 
E|--3--3--3--3--1--1--1--1--0--0--0--0---------------------------------------|  
                                                                                 
G|---------------------------------------------------------------------------|  
D|---------------------------------------------------------------------------| 
A|--------------1--1--1--1--/88-0-88-0-8\--0-3--1----------------------------|
E|--3--3--3--3---------------------------------------------------------------|

G|---------------------------------------------------------------------------|
D|---------------------------------------------------------------------------|
A|--------------------------------------3--1---------------------------------| 
E|--3--3--3--3--1--1--1--1--0--0--0--0---------------------------------------| 

G|---------------------------------------------------------------------------|  
D|---------------------------------------------------------------------------| 
A|--------------1--1--1--1--------------0-3--1-------------------------------|
E|--3--3--3--3--------------0--0--0--0---------------------------------------|

[Verse]
G|---------------------------------------------------------------------------|\
D|---------------------------------------------------------------------------| \
A|---------------------------------------------------------------------------|  \
E|--1-3-3-1-3-1-6r--1--1--1--------------------------------------------------|   \
                                                                                  |(x5)
G|---------------------------------------------------------------------------|   /
D|---------------------------------------------------------------------------|  /  
A|--------------3r---x-x-x-x-4r----------------------------------------------| / 
E|--1-3-3-1-3-1--------------------------------------------------------------|/

G|---------------------------------------------------------------------------|
D|---------------------------------------------------------------------------|
A|---------------------------------------------------------------------------| 
E|--1-3-3-1-3-1-6r--1--1--1--------------------------------------------------|

G|---------------------------------------------------------------------------|
D|---------------------------------------------------------------------------|
A|--------------3---4--4-----------------------------------------------------|
E|--1-3-3-1-3-1--------------------------------------------------------------|

[Chorus]
G|---------------------------------------------------------------------------|
D|---------------------------------------------------------------------------|
A|--------------------------------------3--1---------------------------------| 
E|--3--3--3--3--1--1--1--1--0--0--0--0---------------------------------------|  
                                                                                 
G|---------------------------------------------------------------------------|  
D|---------------------------------------------------------------------------| 
A|--------------1--1--1--1--/88-0-88-0-8\--0-3--1----------------------------|
E|--3--3--3--3---------------------------------------------------------------|

G|---------------------------------------------------------------------------|
D|---------------------------------------------------------------------------|
A|--------------------------------------3--1---------------------------------| 
E|--3--3--3--3--1--1--1--1--0--0--0--0---------------------------------------| 

G|---------------------------------------------------------------------------|  
D|---------------------------------------------------------------------------| 
A|--------------1--1--1--1--------------0-3--1-------------------------------|
E|--3--3--3--3--------------0--0--0--0---------------------------------------|

[Guitar solo]
G|---------------------------------------------------------------------------|\
D|---------------------------------------------------------------------------| \
A|---------------------------------------------------------------------------|  \
E|--6-6-6-6-6--6-6-6-6-6-4--6------------------------------------------------|   \
                                                                                  |(x8)
G|---------------------------------------------------------------------------|   /
D|---------------------------------------------------------------------------|  /
A|---------------------------------------------------------------------------| /
E|--3-3-3-3-3--3-3-3-3-3-1--3------------------------------------------------|/

[Verse]
G|---------------------------------------------------------------------------|\
D|---------------------------------------------------------------------------| \
A|---------------------------------------------------------------------------|  \
E|--1-3-3-1-3-1-6r--1--1--1--------------------------------------------------|   \
                                                                                  |(x5)
G|---------------------------------------------------------------------------|   /
D|---------------------------------------------------------------------------|  /  
A|--------------3r---x-x-x-x-4r----------------------------------------------| / 
E|--1-3-3-1-3-1--------------------------------------------------------------|/

G|---------------------------------------------------------------------------|
D|---------------------------------------------------------------------------|
A|---------------------------------------------------------------------------| 
E|--1-3-3-1-3-1-6r--1--1--1--------------------------------------------------|

G|---------------------------------------------------------------------------|
D|---------------------------------------------------------------------------|
A|--------------3---4--4-----------------------------------------------------|
E|--1-3-3-1-3-1--------------------------------------------------------------|

[Chorus]
G|---------------------------------------------------------------------------|\ 
D|---------------------------------------------------------------------------| \
A|--------------------------------------3--1---------------------------------|  \
E|--3--3--3--3--1--1--1--1--0--0--0--0---------------------------------------|   \
                                                                                  \
G|---------------------------------------------------------------------------|     \
D|---------------------------------------------------------------------------|      \
A|--------------1--1--1--1--/88-0-88-0-8\--0-3--1----------------------------|       \
E|--3--3--3--3---------------------------------------------------------------|        \
                                                                                       |(x2)
G|---------------------------------------------------------------------------|        /
D|---------------------------------------------------------------------------|       /
A|--------------------------------------3--1---------------------------------|      /
E|--3--3--3--3--1--1--1--1--0--0--0--0---------------------------------------|     /
                                                                                  /
G|---------------------------------------------------------------------------|   /
D|---------------------------------------------------------------------------|  /
A|--------------1--1--1--1--------------0-3--1-------------------------------| /
E|--3--3--3--3--------------0--0--0--0---------------------------------------|/

[Solo (fade-out)]
G|---------------------------------------------------------------------------|\
D|---------------------------------------------------------------------------| \
A|---------------------------------------------------------------------------|  \
E|--1-3-3-1-3-1-6r--1--1--1--------------------------------------------------|   \
                                                                                  |(x10)
G|---------------------------------------------------------------------------|   /
D|---------------------------------------------------------------------------|  /  
A|--------------3r---x-x-x-x-4r----------------------------------------------| / 
E|--1-3-3-1-3-1--------------------------------------------------------------|/


************************************

| /  Slide up
| \  Slide down
| r  Release
| x  Dead note

************************************

            
            
Suggest correction
Creating personal tab
Creating personal tab
You can edit any tab online and save it as your Personal.

You can edit, replace or remove any tab part or add personal notes – all changes will be seen only by you.

Personal tabs can be accessed anytime from any device, even offline.
Learn more »
Give kudos to tab author, rate the tab!
1 2 3 4 5
comments
print report bad tab
guest
You may want to rate the tab now too:
select rating
Wanna post a correction for this tab? Suggest correction