Oops, an error
Loading. Please wait.

Low Mans Lyric bass

version 2
version 2

Whole song

Interactive

136 views 1 this week
no commentswrite comment
1 2 3 4 5
2 more votes to show rating
add to favorites
×
Save as Personal and add changes to this tab that will be seen only by you. Learn more ›
×
You can save this tab as Personal to edit and correct it or add notes. All changes will be seen only by you. Learn more »
launch autoscroll
font size
0
reset
guitar tuner
edit
Autoscroll
slow
fast
+/-
esc
set tempo
stop
Author
Difficulty
-------------------------------------------------------------------------------
                             Low Mans Lyric - Metallica
-------------------------------------------------------------------------------
Tabbed by: 790FX
Album: ReLoad (1997)
Tuning: half-step down

I love Low Mans Lyric and Jasons bass line and it's sad that all the tabs i found are more or less wrong. 
So I start to tab something close, as good as i could. And it takes a lot of work and time! *phew

It looks harder than it realy is. The song has a great feeling, play with it and you got the right timing. 
Intro and outro are not part of the original bass line and optional!
Let every note ringing except after it comes a pause. 

If something is wrong please let me now it. Comments are welcome. :)


Counting:
Gb|----------------------------|   
Db|-1-------2-------3----------| half note
Ab|-1---2---3---4---5----6-----| quarter note 
Eb|-1-2-3-4-5-6-7-8-9-10-11-12-| eighth note



Intro @ 0:14 
                                                                       __                    
    ~        s  s                     ~        s  s                      \
Gb|-14-------16-18---19---18---14---|-12-------16-18---19---18---16---|   \
Db|---------------------------------|---------------------------------|    \
Ab|---------------------------------|---------------------------------|     \
Eb|---------------------------------|---------------------------------|      \
                                                                              | x5
     ~       s  s                     ~                                      / 
Gb|-14-------16-18---19---18---19---|-16-------18---19---18---16---|        /
Db|---------------------------------|------------------------------|       /
Ab|---------------------------------|------------------------------|      /
Eb|---------------------------------|------------------------------|   __/


                                                                                        

Verse 1 @ 1:08
       
  | 1 + 2 + 3 + 4 + 5 + 6 + | 1 + 2 + 3 + 4 + 5 + 6 + | 1 + 2 + 3 + 4 + 5 + 6 + | 1 + 2 + 3 + 4 + 5 + 6 + |
Gb|-------------------------|-------------------------|-------------------------|-----------------------5-|
Db|-7-----------------------|-------------------------|-7-----------------------|-------------------5-7---|
Ab|---------------------9---|-7-------------------7---|---------------------9---|-7---------------7-------|
Eb|-------------------------|-------------------------|-------------------------|-------------------------|


Gb|-------------------------|-------------------------|-------------------------|-------------------------|
Db|-7-------------------7---|-5-----------------------|-------------------------|-------------9---9---9---|
Ab|-------------------------|--------------------10---|-(10)----------5/7\5-----|-------------------------|
Eb|-------------------------|-------------------------|--8------------------8---|-7-----------------------|

              R                 R                                 R                         R
Gb|-------------------------|-------------9---7-------|-------------------------|-----------------------5-|
Db|-7-------7-----------7---|---------------------9---|-7-------7-----------7---|-------------------5-7---|
Ab|-----------------------9-|-7-----------------------|-----------------------9-|-7-------7-------7-------|
Eb|-------------------------|-------------------------|-------------------------|-------------------------|

              R                         R
Gb|-------------------------|-------------------------|-------------------------|-------------------------|
Db|-7-------7-----------7---|-5-------5---------------|-------------------------|-------------------------|
Ab|-------------------------|--------------------10---|-(10)------------5/7\5---|-------------------------|
Eb|-------------------------|-------------------------|--8--------------------8-|-7---7---7---7---7---7---|


Gb|-------------------------|-------------------------|-------------9---7-------|
Db|-------------------------|-------------------------|---------------------9---|
Ab|-------------------------|-------------------------|-------------------------|
Eb|-7---7---7---7---5-7-8-5-|-7---7---7---7---7---7---|-7---7---7---------------|



Chorus 1 @ 2:01

  | 1 + 2 + 3 + 4 + 5 + 6 + | 1 + 2 + 3 + 4 + 5 + 6 + | 1 + 2 + 3 + 4 + 5 + 6 + | 1 + 2 + 3 + 4 + 5 + 6 + |
Gb|-------------------------|-------------------------|-4-7---------7---4---7---|-9-----------------------|
Db|-7-------7-7-7-------7---|-5--------5-5-5--------7-|-------------------------|-------------------------|
Ab|-------------------------|-------------------------|-------------------------|-------------10--------\-| x2
Eb|-------------------------|-------------------------|-------------------------|-------------------------|



Verse 2 @ 2:23
  
  | 1 + 2 + 3 + 4 + 5 + 6 + | 1 + 2 + 3 + 4 + 5 + 6 + | 1 + 2 + 3 + 4 + 5 + 6 + | 1 + 2 + 3 + 4 + 5 + 6 + |
Gb|-------------------------|-------------------------|-------------------------|-----------------------5-|
Db|-7-----------------------|-------------------------|-7-----------------------|-------------------5-7---|
Ab|---------------------9---|-7-------------------7---|---------------------9---|-7---------------7-------|
Eb|-------------------------|-------------------------|-------------------------|-------------------------|


Gb|-------------------------|-------------------------|-------------------------|-------------------------|
Db|-7-------------------7---|-5-----------------------|-------------------------|-------------9---9---9---|
Ab|-------------------------|--------------------10---|-(10)----------5/7\5-----|-------------------------|
Eb|-------------------------|-------------------------|--8------------------8---|-7-----------------------|

              R                 R                                 R                         R
Gb|-------------------------|-------------9---7-------|-------------------------|-----------------------5-|
Db|-7-------7-----------7---|---------------------9---|-7-------7-----------7---|-------------------5-7---|
Ab|-----------------------9-|-7-----------------------|-----------------------9-|-7-------7-------7-------|
Eb|-------------------------|-------------------------|-------------------------|-------------------------|

              R                         R
Gb|-------------------------|-------------------------|-5--------------7-9-7----|-------------------------|
Db|-7-------7-----------7---|-5-------5-----------5---|----------------------10-|-9---9---9---9---9---9---|
Ab|-------------------------|-------------------------|-------------------------|-------------------------|
Eb|-------------------------|-------------------------|-------------------------|-------------------------|


Gb|--------------------------|-------------------------|-------------------------|
Db|-9---9---9---9---7-9-10-7-|-9---9---9---9---9---9---|-9---9---9---------------|
Ab|--------------------------|-------------------------|-------------7---5-------|
Eb|--------------------------|-------------------------|---------------------7---|



Chorus 2 @ 3:16
  
  | 1 + 2 + 3 + 4 + 5 + 6 + | 1 + 2 + 3 + 4 + 5 + 6 + | 1 + 2 + 3 + 4 + 5 + 6 + | 1 + 2 + 3 + 4  + 5  +  6 + |
Gb|-----------4-6-7-6-------|-------------------------|-4-7-------7-7-7-4---7---|-9---9-9-9------------------|
Db|-7-------7-----------7---|-5-------5-5-5---------7-|-------------------------|----------------------------|
Ab|-------------------------|-------------------------|-------------------------|-------------10---10-10-10\-|
Eb|-------------------------|-------------------------|-------------------------|----------------------------|


Gb|---------------7-6-------|-------------------------|-4-7-------7-7-7-4---7---|-9---9-9-9---12---12-12-12\-|
Db|-7-------7-7---------7---|-5-------5-5-5---------7-|-------------------------|----------------------------|
Ab|-------------------------|-------------------------|-------------------------|----------------------------|
Eb|-------------------------|-------------------------|-------------------------|----------------------------|



Interlude @ 3:38

  | 1 + 2 + 3 + 4 + 5 + 6 + | 1 + 2 + 3 + 4 + 5 + 6 + | 1 + 2 + 3 + 4 + 5 + 6 + | 1 + 2 + 3 + 4 + 5 + 6 + |
Gb|-------------------------|-------------------------|-------------------------|-------------------------|
Db|-------------------------|-------------------------|-------------------------|-------------------------|
Ab|-------------------------|-------------------------|-------------------------|-------------------------| x3
Eb|-5---3-3---3---2-2-----2-|-1-----------------------|-5---3-3---3---2-2-----2-|-1---1---0-1-0-1-3-1-----|


Gb|--------------------------|-9---9---9---9---9---9---|
Db|--------------------------|-9---9---9---9---9---9---|
Ab|-/7---7---7---7---7---7---|-7---7---7---7---7---7---|
Eb|--------------------------|-------------------------|



Chorus 3 @ 4:16

  
Gb|-------------------------|-------------------------|-4-7-------7-7-7-4---7---|-9---9-9-9------------------|
Db|-7-------7-7-7-------7---|-5-------5-5-5---------7-|-------------------------|----------------------------|
Ab|-------------------------|-------------------------|-------------------------|-------------10---10-10-10\-|
Eb|-------------------------|-------------------------|-------------------------|----------------------------|


Gb|-------------------------|-------------------------|-4-7-------7-7-7-4---7---|-9---9-9-9---12---12-12-12\-|
Db|-7-------7-7-7-------7---|-5-------5-5-5---------7-|-------------------------|----------------------------|
Ab|-------------------------|-------------------------|-------------------------|----------------------------|
Eb|-------------------------|-------------------------|-------------------------|----------------------------|



Verse 3 @ 4:38

              R                             R                     R                             R
Gb|-------------------------|-------------------------|-------------------------|-------------------------|
Db|-------------------------|-------------------------|-------------------------|-------------------------|
Ab|-0-------0-----------0---|-------------------------|-0-------0-----------0---|---------------------0-3-|
Eb|-----------------------2-|-0-------0-0-0-------0-3-|-----------------------2-|-0-------0-0-0---0-3-----|

              R                         R     
Gb|-------------------------|-------------------------|-------------------------|-------------4---4---4---|
Db|-------------------------|-------------------------|-------------------------|-------------------------|
Ab|-0-------0-----------0---|-------------------------|-3---------------5-7-5-3-|-2-----------------------|
Eb|-------------------------|-3-------3-----------3---|-------------------------|-------------------------|

              R                                                   R                             R
Gb|-------------------------|-------------------------|-------------------------|-------------------------|
Db|-------------------------|-------------------------|-------------------------|-------------------------|
Ab|-0-------0-----------0---|---------------7---5-----|-0-------0-----------0---|---------------------0-3-|
Eb|-----------------------2-|-0---------------------7-|-----------------------2-|-0-------0-0-0---0-3-----|

              R
Gb|-------------------------|-------------------------|----------------7-9-7----|-------------------------|
Db|-------------------------|-------------------------|----------------------10-|-9---9---9---9---9---9---|
Ab|-0-------0-----------0---|-------------------------|-3-----------------------|-------------------------|
Eb|-------------------------|-3-------------------3---|-------------------------|-------------------------|


Gb|--------------------------|-------------------------|-------------9---7-------|
Db|-9---9---9---9---7-9-10-7-|-9---9---9---9---9---9---|-9---9---9-----------9---|
Ab|--------------------------|-------------------------|-------------------------|
Eb|--------------------------|-------------------------|-------------------------|



Chorus 2 @ 5:30


Gb|-----------4-6-7-6-------|-------------------------|-4-7-------7-7-7-4---7---|-9---9-9-9------------------|
Db|-7-------7-----------7---|-5-------5-5-5---------7-|-------------------------|----------------------------|
Ab|-------------------------|-------------------------|-------------------------|-------------10---10-10-10\-|
Eb|-------------------------|-------------------------|-------------------------|----------------------------|


Gb|---------------7-6-------|-------------------------|-4-7-------7-7-7-4---7---|-9---9-9-9---12---12-12-12\-|
Db|-7-------7-7---------7---|-5-------5-5-5---------7-|-------------------------|----------------------------|
Ab|-------------------------|-------------------------|-------------------------|----------------------------|
Eb|-------------------------|-------------------------|-------------------------|----------------------------|


Interlude @ 5:52


Gb|-------------------------|-------------------------|-------------------------|-------------------------|
Db|-------------------------|-------------------------|-------------------------|-------------------------|
Ab|-------------------------|-------------------------|-------------------------|-------------------------| x2
Eb|-5---3-3---3---2-2-----2-|-1-----------------------|-5---3-3---3---2-2-----2-|-1---1---0-1-0-1-3-1-----|


Gb|--------------------------|-------------------------|
Db|--------------------------|-9---9---9---9---9---9---|
Ab|-/7---7---7---7---7---7---|-7---7---7---7---7---7---|
Eb|--------------------------|-0---0---0---0---0---0---|



Outro @ 6:20
                                                                       __
    ~        s  s                     ~        s  s                      \
Gb|-14-------16-18---19---18---14---|-12-------16-18---19---18---16---|   \
Db|---------------------------------|---------------------------------|    \
Ab|---------------------------------|---------------------------------|     \
Eb|---------------------------------|---------------------------------|      \
                                                                              | repeat this until end
     ~       s  s                     ~                                      /  and fade slowly out
Gb|-14-------16-18---19---18---19---|-16-------18---19---18---16---|        /
Db|---------------------------------|------------------------------|       /
Ab|---------------------------------|------------------------------|      /
Eb|---------------------------------|------------------------------|   __/


| /  slide up
| \  slide down
| ~  vibrato
| () hold note
| R  rest/pause
| e  eighth note

===============================================================================

            
            
Suggest correction
Creating personal tab
Creating personal tab
You can edit any tab online and save it as your Personal.

You can edit, replace or remove any tab part or add personal notes – all changes will be seen only by you.

Personal tabs can be accessed anytime from any device, even offline.
Learn more »
Give kudos to tab author, rate the tab!
1 2 3 4 5
comments
print report bad tab
guest
You may want to rate the tab now too:
select rating
Wanna post a correction for this tab? Suggest correction