Oops, an error
Loading. Please wait.
We have an official Mama Said tab made by UG professional guitarists. Check out the tab »
×
18,006 views 1 this week
no commentswrite comment
1 2 3 4 5
2 more votes to show rating
add to favorites
×
Save as Personal and add changes to this tab that will be seen only by you. Learn more ›
×
You can save this tab as Personal to edit and correct it or add notes. All changes will be seen only by you. Learn more »
launch autoscroll
font size
0
reset
how to read this tab
guitar tuner
backing track
0:00
0:00
edit
Autoscroll
slow
fast
+/-
esc
set tempo
stop
Author
                 Mama Said                   


                 Metallica




      W.                
D#||-------------------|
A#||-------------------|
F#||-------------------|
C#||-------------------|
G#||-------------------|
D#||-------------------|


  Dm                            
  ^             ^               
  E.  S S S S S E  S S S S S S  
--1---1-0-1-----3--3-1-1-1---1-|
--3-----3-3-----3--3-3-3-3---3-|
--2-----2-----2-2--2-2-2-2-----|
--0---------0------------------|
---------------------------0---|
-------------------------------|


  C           Am                 
  ^           ^                  
  E  S S  S S E  S S E  S S S S  
------------------------0-0-0-0-|
--1--1-1h-3-x-1--1-1-1--0-1-x-x-|
--0--0-0----x-2--2-2-2--2-2-x-x-|
--2--2-2----x-2--2-2-2--2-2-----|
--3--3-3------0-----------------|
--------------------------------|


  Dm                            
  ^              ^              
  E  S S S S S S E  S S S S E   
--1--1-1-0-1-----3--3-1-1-1----|
--3------3-3-----3--3-3-3-3----|
--2------2-----2-2--2-2-2-2----|
--0----------0-----------------|
----------------------------0--|
-------------------------------|


  C           Am                
  ^           ^                 
  E  S S  S S E  S S E  S E  S  
--------------0--L-0-0--0-0----|
--1--1-1h-3-1-1--L-1-1--1-3----|
--0--0-0----0-2--L-2-2--2-2--0-|
--2--2-2----2-2--L---2---------|
--3--3-3------0--L---0---------|
-------------------------------|


      1st Verse                         
  Dm                                    
  ^                     ^               
  E.  S         S S S S E  S S S S S S  
--1---1---------0-1-----3--3-1-1-1---1-|
--3-------------3-3-----3--3-3-3-3---3-|
--2-------------2-----2-2--2-2-2-2-----|
--0-----------------0------------------|
-----------------------------------0---|
---------------------------------------|


  C           Am                 
  ^           ^                  
  E  S S  S S E  S S E  S S S S  
------------------------0-0-0-0-|
--1--1-1h-3-x-1--1-1-1--0-1-x-x-|
--0--0-0----x-2--2-2-2--2-2-x-x-|
--2--2-2----x-2--2-2-2--2-2-----|
--3--3-3------0-----------------|
--------------------------------|


  Dm                            
  ^                             
  E  S S S S S S E  S S S S E   
--1--1-1-0-1-----3--3-1-1-1----|
--3------3-3-----3--3-3-3-3----|
--2------2-----2-2--2-2-2-2----|
--0----------0-----------------|
----------------------------0--|
-------------------------------|


  C           Am   Asus4            
  ^           ^                     
  E  S S  S S E  S S     E  S S E   
--------------0--0-0-----0----0-0--|
--1--1-1h-3-x-1--1-3-----3----3-3--|
--0--0-0----x-2--2-2-----2----2-2--|
--2--2-2----x-2----2-----2----2-2--|
--3--3-3------0--------------------|
-----------------------------------|


  Dm                            
  ^             ^               
  E.  S S S S S E  S S S S S S  
--1---1-0-1-----3--3-1-L-1---x-|
--3-----3-3-----3--3-3-L-3---x-|
--2-----2-----2-2--2-2-L-2-----|
--0---------0------------------|
---------------------------0---|
-------------------------------|


  C           Am                
  ^           ^                 
  E  S S  S S E  S S E  S S E   
------------------------0-0-0--|
--1--1-1h-3-x-1--L-1-1--1-3-3--|
--0--0-0----x-2--L-2-2--2-2-2--|
--2--2-2----x-2--L-2-2--2-2-2--|
--3--3-3------0--L-------------|
-------------------------------|


  Dm                            
  ^              ^              
  E  S S S S S S E  S S S S E   
--1--1-1-0-1-----3--3-1-1-1----|
--3------3-3-----3--3-3-3-3----|
--2------2-----2-2--2-2-2-2----|
--0----------0-----------------|
----------------------------0--|
-------------------------------|


  C      Am               
  ^      ^                
  Q.     H        Q.      
--0------0--------L------|
--1------1--------L------|
--0------2--------L------|
--2------2--------L------|
--3------0--------L------|
-------------------------|


  Chorus            
  Dm     C    Am    
  ^      ^    ^     
  Q      Q    Q     
--1------0----0----|
--3------1----1----|
--2------0----2----|
--0------2----2----|
---------3----0----|
-------------------|


  ^                            
  E  S S E  S S S S E  E  S S  
--3--3-3-3--3-3-L-3-3--3--3-3-|
--3--3-3-3--3-3-L-3-3--3--3-3-|
--0--0-0-0--0-0-L-0-0--0--0-0-|
--0--0-0-0--0-0-L-0-0--0--0-0-|
--2--2-2-2--2-2-L-2-2--2--2-2-|
--3--3-3-3--3-3-L-3-3--3--3-3-|


  Dm   C    Fmaj7/A  
  ^    ^    ^        
  Q    Q    Q        
--1----0----0-------|
--3----1----1-------|
--2----0----2-------|
--0----2----3-------|
-------3----0-------|
--------------------|


  ^                            
  E  S S E  S S S S E  E  S S  
--3--3-3-3--3-3-L-3-3--3--3-3-|
--3--3-3-3--3-3-L-3-3--3--3-3-|
--0--0-0-0--0-0-L-0-0--0--0-0-|
--0--0-0-0--0-0-L-0-0--0--0-0-|
--2--2-2-2--2-2-L-2-2--2--2-2-|
--3--3-3-3--3-3-L-3-3--3--3-3-|


  Dm   C    Am    
  ^    ^    ^     
  Q    Q    Q     
--1----0----0----|
--3----1----1----|
--2----0----2----|
--0----2----2----|
-------3----0----|
-----------------|


  ^                            
  E  S S E  S S S S E  E  S S  
--3--3-3-3--3-3-L-3-3--3--3-3-|
--3--3-3-3--3-3-L-3-3--3--3-3-|
--0--0-0-0--0-0-L-0-0--0--0-0-|
--0--0-0-0--0-0-L-0-0--0--0-0-|
--2--2-2-2--2-2-L-2-2--2--2-2-|
--3--3-3-3--3-3-L-3-3--3--3-3-|


  Dm   C    Bb   G       Am                
  ^    ^    ^    ^       ^                 
  Q    Q    Q    Q       W                 
--1----0----1----3----|--0----------------|
--3----1----3----3----|--1----------------|
--2----0----3----0----|--2----------------|
--0----2----3----0----|--2----------------|
-------3----1----2----|--0----------------|
-----------------3----|-------------------|


  Dm                            
  ^             ^               
  E.  S S S S S E  S S S S S S  
--1---1-0-1-----3--3-1-1-1---1-|
--3-----3-3-----3--3-3-3-3---3-|
--2-----2-----2-2--2-2-2-2-----|
--0---------0------------------|
---------------------------0---|
-------------------------------|


  C           Am                 
  ^           ^                  
  E  S S  S S E  S S E  S S S S  
------------------------0-0-0-0-|
--1--1-1h-3-x-1--1-1-1--0-1-x-x-|
--0--0-0----x-2--2-2-2--2-2-x-x-|
--2--2-2----x-2--2-2-2--2-2-----|
--3--3-3------0-----------------|
--------------------------------|


  Dm                            
  ^              ^              
  E  S S S S S S E  S S S S E   
--1--1-1-0-1-----3--3-1-1-1----|
--3------3-3-----3--3-3-3-3----|
--2------2-----2-2--2-2-2-2----|
--0----------0-----------------|
----------------------------0--|
-------------------------------|


  C           Am                
  ^           ^                 
  E  S S  S S E  S S E  S E  S  
--------------0--L-0-0--0-0----|
--1--1-1h-3-1-1--L-1-1--1-3----|
--0--0-0----0-2--L-2-2--2-2--0-|
--2--2-2----2-2--L---2---------|
--3--3-3------0--L---0---------|
-------------------------------|


      2nd Verse                         
  Dm                                    
  ^                     ^               
  E.  S         S S S S E  S S S S S S  
--1---1---------0-1-----3--3-1-1-1---1-|
--3-------------3-3-----3--3-3-3-3---3-|
--2-------------2-----2-2--2-2-2-2-----|
--0-----------------0------------------|
-----------------------------------0---|
---------------------------------------|


  C           Am                 
  ^           ^                  
  E  S S  S S E  S S E  S S S S  
------------------------0-0-0-0-|
--1--1-1h-3-x-1--1-1-1--0-1-x-x-|
--0--0-0----x-2--2-2-2--2-2-x-x-|
--2--2-2----x-2--2-2-2--2-2-----|
--3--3-3------0-----------------|
--------------------------------|


  Dm                            
  ^              ^              
  E  S S S S S S E  S S S S E   
--1--1-1-0-1-----3--3-1-1-1----|
--3------3-3-----3--3-3-3-3----|
--2------2-----2-2--2-2-2-2----|
--0----------0-----------------|
----------------------------0--|
-------------------------------|


  C           Am                
  ^           ^                 
  E  S S  S S E  S S E  S E  S  
--------------0--L-0-0--0-0----|
--1--1-1h-3-1-1--L-1-1--1-3----|
--0--0-0----0-2--L-2-2--2-2--0-|
--2--2-2----2-2--L---2---------|
--3--3-3------0--L---0---------|
-------------------------------|


  Dm                            
  ^             ^               
  E.  S S S S S E  S S S S S S  
--1---1-0-1-----3--3-1-1-1---1-|
--3-----3-3-----3--3-3-3-3---3-|
--2-----2-----2-2--2-2-2-2-----|
--0---------0------------------|
---------------------------0---|
-------------------------------|


  C           Am                 
  ^           ^                  
  E  S S  S S E  S S E  S S S S  
------------------------0-0-0-0-|
--1--1-1h-3-x-1--1-1-1--0-1-x-x-|
--0--0-0----x-2--2-2-2--2-2-x-x-|
--2--2-2----x-2--2-2-2--2-2-----|
--3--3-3------0-----------------|
--------------------------------|


  Dm                            
  ^              ^              
  E  S S S S S S E  S S S S E   
--1--1-1-0-1-----3--3-1-1-1----|
--3------3-3-----3--3-3-3-3----|
--2------2-----2-2--2-2-2-2----|
--0----------0-----------------|
----------------------------0--|
-------------------------------|


  C      Am                
  ^      ^                 
  Q.     Q    Q.     Q     
--0------0----L------L----|
--1------1----L------L----|
--0------2----L------L----|
--2------2----L------L----|
--3------0----L------L----|
--------------------------|


  2nd Chorus            
  Dm         C    Am    
  ^          ^    ^     
  Q          Q    Q     
--1----------0----0----|
--3----------1----1----|
--2----------0----2----|
--0----------2----2----|
-------------3----0----|
-----------------------|


  ^                            
  E  S S E  S S S S E  E  S S  
--3--3-3-3--3-3-L-3-3--3--3-3-|
--3--3-3-3--3-3-L-3-3--3--3-3-|
--0--0-0-0--0-0-L-0-0--0--0-0-|
--0--0-0-0--0-0-L-0-0--0--0-0-|
--2--2-2-2--2-2-L-2-2--2--2-2-|
--3--3-3-3--3-3-L-3-3--3--3-3-|


  Dm   C    Fmaj7/A  
  ^    ^    ^        
  Q    Q    Q        
--1----0----0-------|
--3----1----1-------|
--2----0----2-------|
--0----2----3-------|
-------3----0-------|
--------------------|


  ^                            
  E  S S E  S S S S E  E  S S  
--3--3-3-3--3-3-L-3-3--3--3-3-|
--3--3-3-3--3-3-L-3-3--3--3-3-|
--0--0-0-0--0-0-L-0-0--0--0-0-|
--0--0-0-0--0-0-L-0-0--0--0-0-|
--2--2-2-2--2-2-L-2-2--2--2-2-|
--3--3-3-3--3-3-L-3-3--3--3-3-|


  Dm   C    Am    
  ^    ^    ^     
  Q    Q    Q     
--1----0----0----|
--3----1----1----|
--2----0----2----|
--0----2----2----|
-------3----0----|
-----------------|


  ^                            
  E  S S E  S S S S E  E  S S  
--3--3-3-3--3-3-L-3-3--3--3-3-|
--3--3-3-3--3-3-L-3-3--3--3-3-|
--0--0-0-0--0-0-L-0-0--0--0-0-|
--0--0-0-0--0-0-L-0-0--0--0-0-|
--2--2-2-2--2-2-L-2-2--2--2-2-|
--3--3-3-3--3-3-L-3-3--3--3-3-|


  Dm   C    Bb   G     
  ^    ^    ^    ^     
  Q    Q    Q    Q     
--1----0----1----3----|
--3----1----3----3----|
--2----0----3----0----|
--0----2----3----0----|
-------3----1----2----|
-----------------3----|


  Am         Asus2                
  ^                               
  E.  S E  S S     S E  S S E  S  
--0---0-0--0-0-----L-0--0-0-0--0-|
--1---1-1--1-0-----L-0--3-3-3--3-|
--2---2-2--2-2-----L-2--2-2-2--2-|
--2---2-2--2-2-----L-2--2-2-2--2-|
--0---0-0--0-0-----L-0--0-0-0--0-|
---------------------------------|


     Bridge                        
  Dm             G                 
  ^              ^                 
  E  S      S E  E  S S E  E  S S  
--1--1------1-1--3--L-3-3--3--3-3-|
--3--3------3-3--3--L-3-3--3--3-3-|
--2--2------2-2--0--L-0-0--0--0-0-|
--0--0------0-0--0--L-0-0--0--0-0-|
-----------------2--L-2-2--2--2-2-|
-----------------3--L-3-3--3--3-3-|


  C         F                 
  ^         ^                 
  E  S S E  E  S S E  S S E   
--0--0-0-0--1--L-1-1--1-1-1--|
--1--1-1-1--1--L-1-1--1-1-1--|
--0--0-0-0--2--L-2-2--2-2-2--|
--2--2-2-2--3--L-3-3--3-3-3--|
--3--3-3-3--3--L-3-3--3-3-3--|
------------1--L-1-1--1-1-1--|


  Dm        G                 
  ^         ^                 
  E  S S E  E  S S E  E  S S  
--1--1-1-1--3--L-3-3--3--3-3-|
--3--3-3-3--3--L-3-3--3--3-3-|
--2--2-2-2--0--L-0-0--0--0-0-|
--0--0-0-0--0--L-0-0--0--0-0-|
------------2--L-2-2--2--2-2-|
------------3--L-3-3--3--3-3-|


  C         F                 
  ^         ^                 
  E  S S E  E  S S E  S S E   
--0--0-0-0--1--L-1-1--1-1-1--|
--1--1-1-1--1--L-1-1--1-1-1--|
--0--0-0-0--2--L-2-2--2-2-2--|
--2--2-2-2--3--L-3-3--3-3-3--|
--3--3-3-3--3--L-3-3--3-3-3--|
------------1--L-1-1--1-1-1--|


     Bridge                        
  Dm             G                 
  ^              ^                 
  E  S      S E  E  S S E  E  S S  
--1--1------1-1--3--L-3-3--3--3-3-|
--3--3------3-3--3--L-3-3--3--3-3-|
--2--2------2-2--0--L-0-0--0--0-0-|
--0--0------0-0--0--L-0-0--0--0-0-|
-----------------2--L-2-2--2--2-2-|
-----------------3--L-3-3--3--3-3-|


  C         F                 
  ^         ^                 
  E  S S E  E  S S E  S S E   
--0--0-0-0--1--L-1-1--1-1-1--|
--1--1-1-1--1--L-1-1--1-1-1--|
--0--0-0-0--2--L-2-2--2-2-2--|
--2--2-2-2--3--L-3-3--3-3-3--|
--3--3-3-3--3--L-3-3--3-3-3--|
------------1--L-1-1--1-1-1--|


  Dm        G                 
  ^         ^                 
  E  S S E  E  S S E  E  S S  
--1--1-1-1--3--L-3-3--3--3-3-|
--3--3-3-3--3--L-3-3--3--3-3-|
--2--2-2-2--0--L-0-0--0--0-0-|
--0--0-0-0--0--L-0-0--0--0-0-|
------------2--L-2-2--2--2-2-|
------------3--L-3-3--3--3-3-|


  C         F                 
  ^         ^                 
  E  S S E  E  S S E  S S E   
--0--0-0-0--1--L-1-1--1-1-1--|
--1--1-1-1--1--L-1-1--1-1-1--|
--0--0-0-0--2--L-2-2--2-2-2--|
--2--2-2-2--3--L-3-3--3-3-3--|
--3--3-3-3--3--L-3-3--3-3-3--|
------------1--L-1-1--1-1-1--|


  Dm   C    Bb   G     
  ^    ^    ^    ^     
  Q    Q    Q    Q     
--1----0---------3----|
--3----1----3----3----|
--2----0----3----0----|
--0----2----3----0----|
-------3----1----2----|
-----------------3----|


  Am       Asus4                 
  ^                              
  Q.     S S     S S S S S E  S  
--0------L-0-------0---0---0--0-|
--1------L-3-------3---3---3--3-|
--2------L-2-------2---2---2--2-|
--2------L-2-------2---2---2--2-|
--0------L-0-------0---0---0--0-|
--------------------------------|


      3nd Verse                         
  Dm                                    
  ^                     ^               
  E.  S         S S S S E  S S S S S S  
--1---1---------0-1-----3--3-1-1-1---1-|
--3-------------3-3-----3--3-3-3-3---3-|
--2-------------2-----2-2--2-2-2-2-----|
--0-----------------0------------------|
-----------------------------------0---|
---------------------------------------|


  C           Am                 
  ^           ^                  
  E  S S  S S E  S S E  S S S S  
------------------------0-0-0-0-|
--1--1-1h-3-x-1--1-1-1--0-1-x-x-|
--0--0-0----x-2--2-2-2--2-2-x-x-|
--2--2-2----x-2--2-2-2--2-2-----|
--3--3-3------0-----------------|
--------------------------------|


  Dm                            
  ^              ^              
  E  S S S S S S E  S S S S E   
--1--1-1-0-1-----3--3-1-1-1----|
--3------3-3-----3--3-3-3-3----|
--2------2-----2-2--2-2-2-2----|
--0----------0-----------------|
----------------------------0--|
-------------------------------|


  C           Am                
  ^           ^                 
  E  S S  S S E  S S E  S E  S  
--------------0--L-0-0--0-0----|
--1--1-1h-3-1-1--L-1-1--1-3----|
--0--0-0----0-2--L-2-2--2-2--0-|
--2--2-2----2-2--L---2---------|
--3--3-3------0--L---0---------|
-------------------------------|


  Dm                            
  ^             ^               
  E.  S S S S S E  S S S S S S  
--1---1-0-1-----3--3-1-1-1---1-|
--3-----3-3-----3--3-3-3-3---3-|
--2-----2-----2-2--2-2-2-2-----|
--0---------0------------------|
---------------------------0---|
-------------------------------|


  C           Am                 
  ^           ^                  
  E  S S  S S E  S S E  S S S S  
------------------------0-0-0-0-|
--1--1-1h-3-x-1--1-1-1--0-1-x-x-|
--0--0-0----x-2--2-2-2--2-2-x-x-|
--2--2-2----x-2--2-2-2--2-2-----|
--3--3-3------0-----------------|
--------------------------------|


  Dm                            
  ^              ^              
  E  S S S S S S E  S S S S E   
--1--1-1-0-1-----3--3-1-1-1----|
--3------3-3-----3--3-3-3-3----|
--2------2-----2-2--2-2-2-2----|
--0----------0-----------------|
----------------------------0--|
-------------------------------|


  ^      ^                                   
  Q.     Q    Q    Q.        Q    Q    Q     
--0------0----L----L------|-----------------|
--1------1----L----L------|-----------------|
--0------2----L----L------|-----------------|
--2------2----L----L------|-----------------|
--3------0----L----L------|-----------------|
--------------------------|-----------------|


  ^                            
  E  S S E  S S S S E  E  S S  
--3--3-3-3--3-3-L-3-3--3--3-3-|
--3--3-3-3--3-3-L-3-3--3--3-3-|
--0--0-0-0--0-0-L-0-0--0--0-0-|
--0--0-0-0--0-0-L-0-0--0--0-0-|
--2--2-2-2--2-2-L-2-2--2--2-2-|
--3--3-3-3--3-3-L-3-3--3--3-3-|


  ^    ^    ^     
  Q    Q    Q     
--1----0----0----|
--3----1----1----|
--2----0----2----|
--0----2----3----|
-------3---------|
-----------------|


  ^                            
  E  S S E  S S S S E  E  S S  
--3--3-3-3--3-3-L-3-3--3--3-3-|
--3--3-3-3--3-3-L-3-3--3--3-3-|
--0--0-0-0--0-0-L-0-0--0--0-0-|
--0--0-0-0--0-0-L-0-0--0--0-0-|
--2--2-2-2--2-2-L-2-2--2--2-2-|
--3--3-3-3--3-3-L-3-3--3--3-3-|


  ^    ^    ^     
  Q    Q    Q     
--1----0----0----|
--3----1----1----|
--2----0----2----|
--0----2----2----|
-------3----0----|
-----------------|


  ^                            
  E  S S E  S S S S E  E  S S  
--3--3-3-3--3-3-L-3-3--3--3-3-|
--3--3-3-3--3-3-L-3-3--3--3-3-|
--0--0-0-0--0-0-L-0-0--0--0-0-|
--0--0-0-0--0-0-L-0-0--0--0-0-|
--2--2-2-2--2-2-L-2-2--2--2-2-|
--3--3-3-3--3-3-L-3-3--3--3-3-|


  ^    ^    ^    ^     
  Q    Q    Q    Q     
--1----0----1----3----|
--3----1----3----3----|
--2----0----3----0----|
--0----2----3----0----|
-------3----1----2----|
-----------------3----|


  ^                          
  E.  S E  S E  E  S S E  S  
--0---0-0--0-0--0--0-0-0--0-|
--1---1-1--1-1--1--1-1-1--1-|
--2---2-2--2-2--2--2-2-2--2-|
--2---2-2--2-2--2--2-2-2--2-|
----------------------------|
----------------------------|


  ^    ^    ^     
  Q    Q    Q     
--1----0----0----|
--3----1----1----|
--2----0----2----|
--0----2----2----|
-------3----0----|
-----------------|


  ^                            
  E  S S E  S S S S E  E  S S  
--3--3-3-3--3-3-L-3-3--3--3-3-|
--3--3-3-3--3-3-L-3-3--3--3-3-|
--0--0-0-0--0-0-L-0-0--0--0-0-|
--0--0-0-0--0-0-L-0-0--0--0-0-|
--2--2-2-2--2-2-L-2-2--2--2-2-|
--3--3-3-3--3-3-L-3-3--3--3-3-|


  ^    ^    ^     
  Q    Q    Q     
--1----0----0----|
--3----1----1----|
--2----0----2----|
--0----2----3----|
-------3----0----|
-----------------|


  ^                            
  E  S S E  S S S S E  E  S S  
--3--3-3-3--3-3-L-3-3--3--3-3-|
--3--3-3-3--3-3-L-3-3--3--3-3-|
--0--0-0-0--0-0-L-0-0--0--0-0-|
--0--0-0-0--0-0-L-0-0--0--0-0-|
--2--2-2-2--2-2-L-2-2--2--2-2-|
--3--3-3-3--3-3-L-3-3--3--3-3-|


  ^    ^    ^     
  Q    Q    Q     
--1----0----0----|
--3----1----1----|
--2----0----2----|
--0----2----2----|
-------3----0----|
-----------------|


  ^                            
  E  S S E  S S S S E  E  S S  
--3--3-3-3--3-3-L-3-3--3--3-3-|
--3--3-3-3--3-3-L-3-3--3--3-3-|
--0--0-0-0--0-0-L-0-0--0--0-0-|
--0--0-0-0--0-0-L-0-0--0--0-0-|
--2--2-2-2--2-2-L-2-2--2--2-2-|
--3--3-3-3--3-3-L-3-3--3--3-3-|


  ^    ^    ^    ^     
  Q    Q    Q    Q     
--1----0----1----3----|
--3----1----3----3----|
--2----0----3----0----|
--0----2----3----0----|
-------3----1----2----|
-----------------3----|


  ^                          
  E.  S E  S E  E  S S E  S  
--0---0-0--0-0--0--0-0-0--0-|
--1---1-1--1-0--0--3-3-3--3-|
--2---2-2--2-2--2--2-2-2--2-|
--2---2-2--2-2--2--2-2-2--2-|
--0---0-0--0-0--0--0-0-0--0-|
----------------------------|


     Bridge                        
  Dm             G                 
  ^              ^                 
  E  S      S E  E  S S E  E  S S  
--1--1------1-1--3--L-3-3--3--3-3-|
--3--3------3-3--3--L-3-3--3--3-3-|
--2--2------2-2--0--L-0-0--0--0-0-|
--0--0------0-0--0--L-0-0--0--0-0-|
-----------------2--L-2-2--2--2-2-|
-----------------3--L-3-3--3--3-3-|


  C         F                 
  ^         ^                 
  E  S S E  E  S S E  S S E   
--0--0-0-0--1--L-1-1--1-1-1--|
--1--1-1-1--1--L-1-1--1-1-1--|
--0--0-0-0--2--L-2-2--2-2-2--|
--2--2-2-2--3--L-3-3--3-3-3--|
--3--3-3-3--3--L-3-3--3-3-3--|
------------1--L-1-1--1-1-1--|


  Dm        G                 
  ^                           
  E  S S E  E  S S E  E  S S  
--1--1-1-1--3--L-3-3--3--3-3-|
--3--3-3-3--3--L-3-3--3--3-3-|
--2--2-2-2--0--L-0-0--0--0-0-|
--0--0-0-0--0--L-0-0--0--0-0-|
------------2--L-2-2--2--2-2-|
------------3--L-3-3--3--3-3-|


  C         F                 
  ^         ^                 
  E  S S E  E  S S E  S S E   
--0--0-0-0--1--L-1-1--1-1-1--|
--1--1-1-1--1--L-1-1--1-1-1--|
--0--0-0-0--2--L-2-2--2-2-2--|
--2--2-2-2--3--L-3-3--3-3-3--|
--3--3-3-3--3--L-3-3--3-3-3--|
------------1--L-1-1--1-1-1--|


     Bridge                        
  Dm             G                 
  ^              ^                 
  E  S      S E  E  S S E  E  S S  
--1--1------1-1--3--L-3-3--3--3-3-|
--3--3------3-3--3--L-3-3--3--3-3-|
--2--2------2-2--0--L-0-0--0--0-0-|
--0--0------0-0--0--L-0-0--0--0-0-|
-----------------2--L-2-2--2--2-2-|
-----------------3--L-3-3--3--3-3-|


  C         F                 
  ^         ^                 
  E  S S E  E  S S E  S S E   
--0--0-0-0--1--L-1-1--1-1-1--|
--1--1-1-1--1--L-1-1--1-1-1--|
--0--0-0-0--2--L-2-2--2-2-2--|
--2--2-2-2--3--L-3-3--3-3-3--|
--3--3-3-3--3--L-3-3--3-3-3--|
------------1--L-1-1--1-1-1--|


  Dm        G                 
  ^         ^                 
  E  S S E  E  S S E  E  S S  
--1--1-1-1--3--L-3-3--3--3-3-|
--3--3-3-3--3--L-3-3--3--3-3-|
--2--2-2-2--0--L-0-0--0--0-0-|
--0--0-0-0--0--L-0-0--0--0-0-|
------------2--L-2-2--2--2-2-|
------------3--L-3-3--3--3-3-|


  C         F                 
  ^         ^                 
  E  S S E  E  S S E  S S E   
--0--0-0-0--1--L-1-1--1-1-1--|
--1--1-1-1--1--L-1-1--1-1-1--|
--0--0-0-0--2--L-2-2--2-2-2--|
--2--2-2-2--3--L-3-3--3-3-3--|
--3--3-3-3--3--L-3-3--3-3-3--|
------------1--L-1-1--1-1-1--|


     Bridge                        
  Dm             G                 
  ^              ^                 
  E  S      S E  E  S S E  E  S S  
--1--1------1-1--3--L-3-3--3--3-3-|
--3--3------3-3--3--L-3-3--3--3-3-|
--2--2------2-2--0--L-0-0--0--0-0-|
--0--0------0-0--0--L-0-0--0--0-0-|
-----------------2--L-2-2--2--2-2-|
-----------------3--L-3-3--3--3-3-|


  C         F                 
  ^         ^                 
  E  S S E  E  S S E  S S E   
--0--0-0-0--1--L-1-1--1-1-1--|
--1--1-1-1--1--L-1-1--1-1-1--|
--0--0-0-0--2--L-2-2--2-2-2--|
--2--2-2-2--3--L-3-3--3-3-3--|
--3--3-3-3--3--L-3-3--3-3-3--|
------------1--L-1-1--1-1-1--|


  Dm        G                 
  ^         ^                 
  E  S S E  E  S S E  E  S S  
--1--1-1-1--3--L-3-3--3--3-3-|
--3--3-3-3--3--L-3-3--3--3-3-|
--2--2-2-2--0--L-0-0--0--0-0-|
--0--0-0-0--0--L-0-0--0--0-0-|
------------2--L-2-2--2--2-2-|
------------3--L-3-3--3--3-3-|


  C         F                 
  ^         ^                 
  E  S S E  E  S S E  S S E   
--0--0-0-0--1--L-1-1--1-1-1--|
--1--1-1-1--1--L-1-1--1-1-1--|
--0--0-0-0--2--L-2-2--2-2-2--|
--2--2-2-2--3--L-3-3--3-3-3--|
--3--3-3-3--3--L-3-3--3-3-3--|
------------1--L-1-1--1-1-1--|


  ^    ^    ^    ^       ^                 
  Q    Q    Q    Q       W                 
--1----0----1----3----|-------------------|
--3----1----3----3----|--1----------------|
--2----0----3----0----|--2----------------|
--0----2----3----0----|--2----------------|
-------3----1----2----|--0----------------|
-----------------3----|-------------------|

            
            
Suggest correction
Creating personal tab
Creating personal tab
You can edit any tab online and save it as your Personal.

You can edit, replace or remove any tab part or add personal notes – all changes will be seen only by you.

Personal tabs can be accessed anytime from any device, even offline.
Learn more »
Give kudos to tab author, rate the tab!
1 2 3 4 5
comments
print report bad tab
guest
You may want to rate the tab now too:
select rating
Wanna post a correction for this tab? Suggest correction