Oops, an error
Loading. Please wait.
We have an official Master Of Puppets tab made by UG professional guitarists. Check out the tab »
×
127,427 views 27 this week
30 commentsread comments
1 2 3 4 5
x 43
add to favorites
×
Save as Personal and add changes to this tab that will be seen only by you. Learn more ›
×
You can save this tab as Personal to edit and correct it or add notes. All changes will be seen only by you. Learn more »
launch autoscroll
font size
0
reset
how to read this tab
guitar tuner
backing track
0:00
0:00
edit
Autoscroll
slow
fast
+/-
esc
set tempo
stop
Author
Difficulty
  Dudes, this right here is Master of Puppets... the way METALLICA played it! EXACTLY!!! 
best band in the world, their most over rated song, yet its better than any other song 
any other band! This is my first tab ever, so dudes, u fuckin better enjoy this. HEADS UP!
Just remember... ALL DOWNSTROKES!

Both guitars play this
|--------------------------------|
|--------------------------------|
|--------------------------------|
|--------------------------------|
|-2------12---11--10-------------|
|-0------10---9---8--------------|

Hammett
Play this 4 times
|--------------------------------------------------------------------|
|--------------------------------------------------------------------|
|--------------------------------------------------------------------|
|--------------------------------------------------------------------|
|--------------------12--11-10---------------------------------------|
|-0-0-12-0-0-11-0-0--10--9--8----0-0-7-0-0-6-0-0-5-0-4-0-3-0-2-1-----|
|
|Hetfield
|--------------------------------------------------------------------|
|--------------------------------------------------------------------|
|--------------------------------------------------------------------|
|--------------------------------------------------------------------|
|-2------------------12--11-10------------------------------------2--|
|-0------------------10--9--8--------------------------------2-1--0--|

Hammett
Play this 2 times
|--------------------------------------------------------------------|
|--------------------------------------------------------------------|
|--------------------------------------------------------------------|
|--------------------------------------------------------------------|
|-----2-----3-----4-----3-----2-2-----2-----3------5\4---5\4---5\4---|
|-0-1---0-1---0-1---0-1---0-1-----0-1---0-1---0-0--3\2-0-3\2-0-3\2---|
|
|Hetfield
|--------------------------------------------------------------------|
|--------------------------------------------------------------------|
|--------------------------------------------------------------------|
|--------------------------------------------------------------------|
|--------------------------------------------------5\4---5\4---5\4---|
|--------------------------------------------------3\2-0-3\2-0-3\2---|

Both guitars
|--------------------------------------------------------------------|
|--------------------------------------------------------------------|
|--------------------------------------------------------------------|
|-------------------------------------------------------------4------|
|-----2-----3-----4-----3-----2-2-----2-----3-----4-----3-----2------|
|-0-1---0-1---0-1---0-1---0-1-----0-1---0-1---0-1---0-1---0-1--------|

|--------------------------------------------------------------------|
|--------------------------------------------------------------------|
|--------------------------------------------------------------------|
|--------------------------------------------------------------------|
|-----2-----3-----4-----3-----2-2-----2-----3------5\4---5\4---5\4---|
|-0-1---0-1---0-1---0-1---0-1-----0-1---0-1---0-0--3\2-0-3\2-0-3\2---|


|--------------------------------------------------------------------|
|--------------------------------------------------------------------|
|--------------------------------------------------------------------|
|-------------------------------------------------------------4------|
|-----2-----3-----4-----3-----2-2-----2-----3-----4-----3-----2------|
|-0-1---0-1---0-1---0-1---0-1-----0-1---0-1---0-1---0-1---0-1--------|

|--------------------------------------------------------------------|
|--------------------------------------------------------------------|
|--------------------------------------------------------------------|
|--------------------------------------------------------------------|
|-----2-----3-----4-----3-----2-2-----2-----3------5\4---5\4---5\4---|
|-0-1---0-1---0-1---0-1---0-1-----0-1---0-1---0-0--3\2-0-3\2-0-3\2---|

|--------------------------------------------------------------------|
|--------------------------------------------------------------------|
|--------------------------------------------------------------------|
|-------------------------8------8------8------8-------8-------------|
|-5\4---5\4---5\4--2-------------------------------------------------|
|-3\2-0-3\2-0-3\2--0--0--0---0--0--0--0---0--0----0--0---------------|

  Play 6 times
|--------------------------------------------------------------------|
|--------------------------------------------------------------------|
|--------------------------------------------------------------------|
|--------------------------------------------------------------------|
|-----------------5/7---8\7--5/7------------------5/7---5/7----------|
|-0-0-0-0-0-0-0-0-3/5-0-6\5--3/5--0-0-0-0-0-0-0-0-3/5-0-3/5----------|

  Play 2 times
|--------------------------------------------------------------------|
|--------------------------------------------------------------------|
|--------------------------------------------------------------------|
|----------------4-4--5\4-4-4----------------4---4----4-4-4-4-4-4-4-4|
|----------------0h2--3\2-0h2----------------0h2-0h2--2-2-2-2-2-2-2-2|
|2-2-2-2-2-2-2-2--------------2-2-2-2-2-2-2-2------------------------|

   Play 3 times
|--------------------------------------------------------------------|
|--------------------------------------------------------------------|
|--------------------------------------------------------------------|
|-9-------7--9------9-----------------------------------8------------|
|-7-------5--7--7-9---10-9h10----------10--9------------6--9---------|
|-0-0-0------------------------8-8-8-8-8---7----8-8-8-8----7---------|

|--------------------------------------------------------------------|
|--------------------------------------------------------------------|
|--------------------------------------------------------------------|
|-9-------7--9------9------------------------------------------------|
|-7-------5--7--7-9---10-9h10----------10--9--9-7-6--6------2-2---3-3|
|-0-0-0-0----------------------8-8-8-8-8---7-----------8-7--0-0---1-1|

|--------------------------------------------------------------------|
|--------------------------------------------------------------------|
|--------------------------------------------------------------------|
|-------------------5------4-----2---7------5-----4----------9-----5-|
|-2------4------5---3--0-0-2-0-0-0---5------3-----2---2------7-----3-|
|-0--0-0-2--0-0-3-----------------------0-0---0-0-----0--0-0---0-0---|

|--------------------------------------------------------------------|
|--------------------------------------------------------------------|
|--------------------------------------------------------------------|
|----------------------------7-----5---------------------------------|
|-2--2----3--3--------2------5-----3--------2--2----3--3-------------|
|-0--0----1--1--------0--0-0---0-0----------0--0----1--1-------------|

|--------------------------------------------------------------------|
|--------------------------------------------------------------------|
|--------------------------------------------------------------------|
|-------------------------------------------------------------4------|
|-----2-----3-----4-----3-----2-2-----2-----3-----4-----3-----2------|
|-0-1---0-1---0-1---0-1---0-1-----0-1---0-1---0-1---0-1---0-1--------|

|--------------------------------------------------------------------|
|--------------------------------------------------------------------|
|--------------------------------------------------------------------|
|--------------------------------------------------------------------|
|-----2-----3-----4-----3-----2-2-----2-----3------5\4---5\4---5\4---|
|-0-1---0-1---0-1---0-1---0-1-----0-1---0-1---0-0--3\2-0-3\2-0-3\2---|

|--------------------------------------------------------------------|
|--------------------------------------------------------------------|
|--------------------------------------------------------------------|
|--------------------------------------------------------------------|
|-5\4---5\4---5\4----------------------------------------------------|
|-3\2-0-3\2-0-3\2----------------------------------------------------|

  Play 6 times
|--------------------------------------------------------------------|
|--------------------------------------------------------------------|
|--------------------------------------------------------------------|
|--------------------------------------------------------------------|
|-----------------5/7--8\7--5/7------------------5/7---5/7-----------|
|-0-0-0-0-0-0-0-0-3/5--6\5--3/5--0-0-0-0-0-0-0-0-3/5-0-3/5-----------|

  Play 2 times
|--------------------------------------------------------------------|
|--------------------------------------------------------------------|
|--------------------------------------------------------------------|
|----------------4-4--5\4-4-4----------------4---4----4-4-4-4-4-4-4-4|
|----------------0h2--3\2-0h2----------------0h2-0h2--2-2-2-2-2-2-2-2|
|2-2-2-2-2-2-2-2--------------2-2-2-2-2-2-2-2------------------------|

   Play 3 times
|--------------------------------------------------------------------|
|--------------------------------------------------------------------|
|--------------------------------------------------------------------|
|-9-------7--9------9-----------------------------------8------------|
|-7-------5--7--7-9---10-9h10----------10--9------------6--9---------|
|-0-0-0------------------------8-8-8-8-8---7----8-8-8-8----7---------|

|--------------------------------------------------------------------|
|--------------------------------------------------------------------|
|--------------------------------------------------------------------|
|-9-------7--9------9------------------------------------------------|
|-7-------5--7--7-9---10-9h10----------10--9--9-7-6--6------2-2---3-3|
|-0-0-0-0----------------------8-8-8-8-8---7-----------8-7--0-0---1-1|

|--------------------------------------------------------------------|
|--------------------------------------------------------------------|
|--------------------------------------------------------------------|
|-------------------5------4-----2---7------5-----4----------9-----5-|
|-2------4------5---3--0-0-2-0-0-0---5------3-----2---2------7-----3-|
|-0--0-0-2--0-0-3-----------------------0-0---0-0-----0--0-0---0-0---|

|--------------------------------------------------------------------|
|--------------------------------------------------------------------|
|--------------------------------------------------------------------|
|----------------------------7-----5---------------------------------|
|-2--2----3--3--------2------5-----3--------2--2----3--3-------------|
|-0--0----1--1--------0--0-0---0-0----------0--0----1--1-------------|

Play 2 times
Hetfield      *Clean
|----------------0h2p0-----3------------------------------------------|
|-------------3--------3-----------3---3-----0-----0-------0-------0--|
|------0----2---2--------2-------0---0---0-------2-------2-------2----|
|----2----0--------------------------------2-----------------0-1------|
|--2---------------------------3---------------0-----0-2-------------2|
|0--------------------------------------------------------------------|

Hammett
|----19-15----17-14-------------17-14----15-12-----------------------|
|-17-------17-------15-15-15-15-------15-------13-13-13-13-----------|
|--------------------------------------------------------------------|
|--------------------------------------------------------------------|
|--------------------------------------------------------------------|
|--------------------------------------------------------------------|
|
|Hetfield
|----22-19----20-17-------------20-17----19-15-----------------------|
|-20-------20-------19-19-19-19-------19-------17-17-17-17-----------|
|--------------------------------------------------------------------|
|--------------------------------------------------------------------|
|--------------------------------------------------------------------|
|--------------------------------------------------------------------|
|
| Hetfield   *Plays thru entire part
|----------------0h2p0-----3------------------------------------------|
|-------------3--------3-----------3---3-----0-----0-------0-------0--|
|------0----2---2--------2-------0---0---0-------2-------2-------2----|
|----2----0--------------------------------2-----------------0-1------|
|--2---------------------------3---------------0-----0-2-------------2|
|0--------------------------------------------------------------------|

Hammett
|-15-12----14-12h14p12-11-------------------11-12-14-----------------|
|-------13----------------13-12-13-15-13-15--------------------------|
|--------------------------------------------------------------------|
|--------------------------------------------------------------------|
|--------------------------------------------------------------------|
|--------------------------------------------------------------------|
|
|Hetfield
|-19-15----17-15h1715-14-----------------------17-19-----------------|
|-------17----------------17-16-17-19-17-19-20-----------------------|
|--------------------------------------------------------------------|
|--------------------------------------------------------------------|
|--------------------------------------------------------------------|
|--------------------------------------------------------------------|

Hammett
|----19-15----17-14-------------17-14----15-12-----------------------|
|-17-------17-------15-15-15-15-------15-------13-13-13-13-----------|
|--------------------------------------------------------------------|
|--------------------------------------------------------------------|
|--------------------------------------------------------------------|
|--------------------------------------------------------------------|
|
|Hetfield
|----22-19----20-17-------------20-17----19-15-----------------------|
|-20-------20-------19-19-19-19-------19-------17-17-17-17-----------|
|--------------------------------------------------------------------|
|--------------------------------------------------------------------|
|--------------------------------------------------------------------|
|--------------------------------------------------------------------|
|
| Hetfield
|----------------0h2p0-----3------------------------------------------|
|-------------3--------3-----------3---3-----0-----0-------0-------0--|
|------0----2---2--------2-------0---0---0-------2-------2-------2----|
|----2----0--------------------------------2-----------------0-1------|
|--2---------------------------3---------------0-----0-2-------------2|
|0--------------------------------------------------------------------|

  Hammett
|-15-12----14-12h14p12-11-------------------11-12-14-----------------|
|-------13----------------13-12-13-15-13-15--------------------------|
|--------------------------------------------------------------------|
|--------------------------------------------------------------------|
|--------------------------------------------------------------------|
|--------------------------------------------------------------------|
|
|Hetfield
|-19-15----17-15h1715-14-----------------------17-19-----------------|
|-------17----------------17-16-17-19-17-19-20-----------------------|
|--------------------------------------------------------------------|
|--------------------------------------------------------------------|
|--------------------------------------------------------------------|
|--------------------------------------------------------------------|
|
| Hetfield
|----------------0h2p0-----3------------------------------------------|
|-------------3--------3-----------3---3-----0-----0-------0-------0--|
|------0----2---2--------2-------0---0---0-------2-------2-------2----|
|----2----0--------------------------------2-----------------0-1------|
|--2---------------------------3---------------0-----0-2-------------2|
|0--------------------------------------------------------------------|


 Hetfield solo!
|----------------15----15-17----19-15-12-----------------------------|
|-17-17-17-17-19----19-------19----------13~~------------------------|
|--------------------------------------------------------------------|
|--------------------------------------------------------------------|
|--------------------------------------------------------------------|
|--------------------------------------------------------------------|
|
| Hammett   *plays thru entire part
|----------------0h2p0-----3------------------------------------------|
|-------------3--------3-----------3---3-----0-----0-------0-------0--|
|------0----2---2--------2-------0---0---0-------2-------2-------2----|
|----2----0--------------------------------2-----------------0-1------|
|--2---------------------------3---------------0-----0-2-------------2|
|0--------------------------------------------------------------------|

|---------15-14----15-14---------------------------------------------|
|-15b-15b-------12-------12-15-12----------15------------------------|
|---------------------------------12-14-12-14b-14-12-----------------|
|----------------------------------------------------14~~------------|
|--------------------------------------------------------------------|
|--------------------------------------------------------------------|

|--------------------------------------------------------------------|
|--------------------------------------------------------------------|
|-12-------12-12h14p12-11----14-12-11--------------------------------|
|----14-12----------------12----------10~~---------------------------|
|--------------------------------------------------------------------|
|--------------------------------------------------------------------|

|----------------------------15-11/12-11-------12//19----------------|
|----------------------------------------12-11-11//17----------------|
|--------------------9-10-12-----------------------------------------|
|-7-9-10~~-7-9-10-12-------------------------------------------------|
|--------------------------------------------------------------------|
|--------------------------------------------------------------------|


 Play 2 times
 Hammett *Let chords ring
|--------------------------------------------------------------------|
|--------------------------------------------------------------------|
|---------2---------------------------------------------------3------|
|---------0--------------------5---------------2------4-------1------|
|--2---------------------------3---------------0------2--------------|
|--0-----------------------------------------------------------------|
|
|Hetfield *distorted
|----------------0h2p0-----3------------------------------------------|
|-------------3--------3-----------3---3-----0-----0-------0-------0--|
|------0----2---2--------2-------0---0---0-------2-------2-------2----|
|----2----0--------------------------------2-----------------0-1------|
|--2---------------------------3---------------0-----0-2-------------2|
|0--------------------------------------------------------------------|
 Both guitars
|--------------------------------------------------------------------|
|--------------------------------------------------------------------|
|--------------------------------------------------------------------|
|--------------------------------------------------------------------|
|-2--2--2--2--2--2--2--2--2--2--2--2--2--2--2--2---------------------|
|-0--0--0--0--0--0--0--0--0--0--0--0--0--0--0--0---------------------|

  Play 3 times
|---------------------------------------------------------------------|
|---------------------------------------------------------------------|
|---------------------------------------------------------------------|
|---------------6-6---------------6---------------6-6---------------6-|
|-4-4-5-4-4-4-5-4-4-4-4-5-4-4-4-5-4-4-4-5-4-4-4-5-4-4-4-4-5-4-4-4-5-4-|
|-2-2-3-2-2-2-3-----2-2-3-2-2-2-3---2-2-3-2-2-2-3-----2-2-3-2-2-2-3---|

  *Let it ring
|--------------------------------------------------------------------|
|--------------------------------------------------------------------|
|--------------------------------------------------------------------|
|--------------------------------------------------------------------|
|-5--------4--------2------------------------------------------------|
|-3--------2--------0------------------------------------------------|


 Hammett Solo!
|-17-12----------12-17-12----------12-17-12----------12-15-12----------12-|
|-------13-12-13----------13-12-13----------13-12-13----------13-12-13----|
|-------------------------------------------------------------------------|
|-------------------------------------------------------------------------|
|-------------------------------------------------------------------------|
|-------------------------------------------------------------------------|
|
| Hetfield *plays this until indicated
|--------------------------------------------------------------------|
|--------------------------------------------------------------------|
|--------------------------------------------------------------------|
|--------------------------------------------------------------------|
|-----------------5/7---8\7--5/7------------------5/7---5/7----------|
|-0-0-0-0-0-0-0-0-3/5-0-6\5--3/5--0-0-0-0-0-0-0-0-3/5-0-3/5----------|


|-17-12----------12-17-12----------12-17-12----------12-15-12----------12-|
|-------13-12-13----------13-12-13----------13-12-13----------13-12-13----|
|-------------------------------------------------------------------------|
|-------------------------------------------------------------------------|
|-------------------------------------------------------------------------|
|-------------------------------------------------------------------------|

|-19-19-19-17-17-17-15-15-15-14-14-14-17-17-17-15-15-15-14-14-14----------|
|----------------------------------------------------------------15-15-15-|
|-------------------------------------------------------------------------|
|-------------------------------------------------------------------------|
|-------------------------------------------------------------------------|
|-------------------------------------------------------------------------|

          Wammy bar dive hit in between 2nd and 3rd frets and go wild
|---------------17p15-----------------------------------------------------|
|-17bb-17p15p14-------15p14-----------------------------------------------|
|---------------------------16-14--------2.3------------------------------|
|-------------------------------------------------------------------------|
|-------------------------------------------------------------------------|
|-------------------------------------------------------------------------|


|---------------------------10-8-7----8-7------7~~------------------------|
|----------------------------------10-----10-8----------------------------|
|-2-4-2b-4-3-2-2h4p2------------------------------------------------------|
|--------------------2-2h4~-----------------------------------------------|
|-------------------------------------------------------------------------|
|-------------------------------------------------------------------------|


|-10-8-7-10-8-7-12-10-9-12-10-9-14-12-11-14-12-11-17-15-14-19-17-14-17-15-|
|-------------------------------------------------------------------------|
|-------------------------------------------------------------------------|
|-------------------------------------------------------------------------|
|-------------------------------------------------------------------------|
|-------------------------------------------------------------------------|
|  Play 2 times
| *Starts Playing this in the middle of ^
|--------------------------------------------------------------------|
|--------------------------------------------------------------------|
|--------------------------------------------------------------------|
|----------------4-4--5\4-4-4----------------4---4-------------------|
|----------------0h2--3\2-0h2----------------0h2-0h2-----------------|
|2-2-2-2-2-2-2-2--------------2-2-2-2-2-2-2-2------------------------|


|-14-19-17-14-17-15-14-19-17-14-17-15-14-19-17-14-------------------------|
|-------------------------------------------------------------------------|
|-------------------------------------------------------------------------|
|-------------------------------------------------------------------------|
|-------------------------------------------------------------------------|
|-------------------------------------------------------------------------|


|-----14-----14-----14-----14-19-14----14-19-14----14-19-14----14---------|
|-17b----17b----17b----17b----------17----------17----------17------------|
|-------------------------------------------------------------------------|
|-------------------------------------------------------------------------|
|-------------------------------------------------------------------------|
|-------------------------------------------------------------------------|


|-----14-----14-----14-----14-----15-----15-----15-----15-----------------|
|-17b----17b----17b----17b----18b----18b----18b----18b--------------------|
|-------------------------------------------------------------------------|
|-------------------------------------------------------------------------|
|-------------------------------------------------------------------------|
|-------------------------------------------------------------------------|


 Last note bend up and use vibrato with the wammy bar (once again, go wild)
|-----16-----16-----17----17-----18-----18--22----------------------------|
|-19b----19b----20b----20----21b----21b-----------------------------------|
|-------------------------------------------------------------------------|
|-------------------------------------------------------------------------|
|-------------------------------------------------------------------------|
|-------------------------------------------------------------------------|
|
|On last note, Hetfield plays this
|--------------------------------------------------------------------|
|--------------------------------------------------------------------|
|--------------------------------------------------------------------|
|-4-4-4-4-4-4-4-4----------------------------------------------------|
|-2-2-2-2-2-2-2-2----------------------------------------------------|
|--------------------------------------------------------------------|

  Both guitars
|-------------------------------------------------------------------------|
|-------------------------------------------------------------------------|
|-------------------------------------------------------------------------|
|-----------------------------4-4-----------------------------4-----------|
|-----4-----5-----4-----5-----2-2-----4-----5-----4-----5-----2-----------|
|-0-0-2-0-0-3-0-0-2-0-0-3-0-0-----0-0-2-0-0-3-0-0-2-0-0-3-0-0-------------|

|-------------------------------------------------------------------------|
|-------------------------------------------------------------------------|
|-------------------------------------------------------------------------|
|-----------------------------4-4-----------------------------4-4-4-4-4---|
|-----4-----5-----4-----5-----2-2-----4-----5-----4-----5-----2-2-2-2-2---|
|-0-0-2-0-0-3-0-0-2-0-0-3-0-0-----0-0-2-0-0-3-0-0-2-0-0-3-0-0-------------|
 Play 3 times
|-------------------------------------------------------------------------|
|-------------------------------------------------------------------------|
|-------------------------------------------------------------------------|
|---------------------------------2-4-5-5---------------------------------|
|---------------------------2-3-5-------3--3-3-3-2-3-5-3-2----------------|
|-0-0-0-0-0-0-0-0-0-0-2-3-5--------------------------------3-2------------|

|-------------------------------------------------------------------------|
|-------------------------------------------------------------------------|
|-------------------------------------------------------------------------|
|---------------------------------2-4-5-5---------------------------------|
|---------------------------2-3-5-------3--3-3-3-2-3-5-3-2-----2----------|
|-0-0-0-0-0-0-0-0-0-0-2-3-5--------------------------------3-2-0----------|


|-------------------------------------------------------------------------|
|-------------------------------------------------------------------------|
|-------------------------------------------------------------------------|
|-------------------------------------------------------------------------|
|----3-3-3-2-3-5-3-2------------------------------------------------------|
|--------------------3-2--------------------------------------------------|

Hammett
Play this 2 times
|--------------------------------------------------------------------|
|--------------------------------------------------------------------|
|--------------------------------------------------------------------|
|--------------------------------------------------------------------|
|-----2-----3-----4-----3-----2-2-----2-----3------5\4---5\4---5\4---|
|-0-1---0-1---0-1---0-1---0-1-----0-1---0-1---0-0--3\2-0-3\2-0-3\2---|
|
|Hetfield
|--------------------------------------------------------------------|
|--------------------------------------------------------------------|
|--------------------------------------------------------------------|
|--------------------------------------------------------------------|
|--------------------------------------------------5\4---5\4---5\4---|
|--------------------------------------------------3\2-0-3\2-0-3\2---|

  Hammett
Play this 2 times
|--------------------------------------------------------------------|
|--------------------------------------------------------------------|
|--------------------------------------------------------------------|
|--------------------------------------------------------------------|
|-----2-----3-----4-----3-----2-2-----2-----3------5\4---5\4---5\4---|
|-0-1---0-1---0-1---0-1---0-1-----0-1---0-1---0-0--3\2-0-3\2-0-3\2---|
|
|Hetfield
|--------------------------------------------------------------------|
|--------------------------------------------------------------------|
|--------------------------------------------------------------------|
|--------------------------------------------------------------------|
|--------------------------------------------------5\4---5\4---5\4---|
|--------------------------------------------------3\2-0-3\2-0-3\2---|

Both guitars
|--------------------------------------------------------------------|
|--------------------------------------------------------------------|
|--------------------------------------------------------------------|
|--------------------------------------------------------------------|
|--5\4---5\4---5\4---------------------------------------------------|
|--3\2-0-3\2-0-3\2---------------------------------------------------|

  Play 6 times
|--------------------------------------------------------------------|
|--------------------------------------------------------------------|
|--------------------------------------------------------------------|
|--------------------------------------------------------------------|
|-----------------5/7---8\7--5/7------------------5/7---5/7----------|
|-0-0-0-0-0-0-0-0-3/5-0-6\5--3/5--0-0-0-0-0-0-0-0-3/5-0-3/5----------|

  Play 2 times
|--------------------------------------------------------------------|
|--------------------------------------------------------------------|
|--------------------------------------------------------------------|
|----------------4-4--5\4-4-4----------------4---4----4-4-4-4-4-4-4-4|
|----------------0h2--3\2-0h2----------------0h2-0h2--2-2-2-2-2-2-2-2|
|2-2-2-2-2-2-2-2--------------2-2-2-2-2-2-2-2------------------------|

   Play 3 times
|--------------------------------------------------------------------|
|--------------------------------------------------------------------|
|--------------------------------------------------------------------|
|-9-------7--9------9-----------------------------------8------------|
|-7-------5--7--7-9---10-9h10----------10--9------------6--9---------|
|-0-0-0------------------------8-8-8-8-8---7----8-8-8-8----7---------|

|--------------------------------------------------------------------|
|--------------------------------------------------------------------|
|--------------------------------------------------------------------|
|-9-------7--9------9------------------------------------------------|
|-7-------5--7--7-9---10-9h10----------10--9--9-7-6--6------2-2---3-3|
|-0-0-0-0----------------------8-8-8-8-8---7-----------8-7--0-0---1-1|

|--------------------------------------------------------------------|
|--------------------------------------------------------------------|
|--------------------------------------------------------------------|
|-------------------5------4-----2---7------5-----4----------9-----5-|
|-2------4------5---3--0-0-2-0-0-0---5------3-----2---2------7-----3-|
|-0--0-0-2--0-0-3-----------------------0-0---0-0-----0--0-0---0-0---|

|--------------------------------------------------------------------|
|--------------------------------------------------------------------|
|--------------------------------------------------------------------|
|----------------------------7-----5---------------------------------|
|-2--2----3--3--------2------5-----3--------2--2----3--3-------------|
|-0--0----1--1--------0--0-0---0-0----------0--0----1--1-------------|

|--------------------------------------------------------------------|
|--------------------------------------------------------------------|
|--------------------------------------------------------------------|
|-------------------------------------------------------------4------|
|-----2-----3-----4-----3-----2-2-----2-----3-----4-----3-----2------|
|-0-1---0-1---0-1---0-1---0-1-----0-1---0-1---0-1---0-1---0-1--------|

|--------------------------------------------------------------------|
|--------------------------------------------------------------------|
|--------------------------------------------------------------------|
|--------------------------------------------------------------------|
|-----2-----3-----4-----3-----2-2-----2-----3------5\4---5\4---5\4---|
|-0-1---0-1---0-1---0-1---0-1-----0-1---0-1---0-0--3\2-0-3\2-0-3\2---|
 Stop for a second before that last bit...
|--------------------------------------------------------------------|
|--------------------------------------------------------------------|
|--------------------------------------------------------------------|
|--------------------------------------------------------------------|
|-5\4---5\4---5\4----2-----------------------------------------------|
|-3\2-0-3\2-0-3\2----0-----------------------------------------------|

There ya go! The entire fuckin thing! U dudes better enjoy this, I just worked my ass 
making this. Thanx for lookin at it. If u hav any questions, just email me.

            
            
Suggest correction
Creating personal tab
Creating personal tab
You can edit any tab online and save it as your Personal.

You can edit, replace or remove any tab part or add personal notes – all changes will be seen only by you.

Personal tabs can be accessed anytime from any device, even offline.
Learn more »
comments
print report bad tab
30 comments total. Showing first comments.
-1 reply
sam b 10,142 Nov 10, 2006 04:35 AM

The hammet fast solo is off in quite a few places and the bit after that solo is wrong. and the rest of the tab is just like the others!
3 *'s

-2 reply
SGstriker 459 Nov 10, 2006 09:52 AM

I dont understand why they keep accepting tabs for a song that already has a perfect tab.. O well. 3/5

-2 reply
METSOAD 1,632 Nov 10, 2006 09:55 AM

SGstriker has a good point

guest
You may want to rate the tab now too:
select rating
Wanna post a correction for this tab? Suggest correction