Oops, an error
Loading. Please wait.

Mercyful Fate bass

version 2
version 2

Whole song

Interactive

590 views 1 this week
1 commentread comment
1 2 3 4 5
x 3
add to favorites
×
Save as Personal and add changes to this tab that will be seen only by you. Learn more ›
×
You can save this tab as Personal to edit and correct it or add notes. All changes will be seen only by you. Learn more »
launch autoscroll
font size
0
reset
guitar tuner
backing track
0:00
0:00
edit
Autoscroll
slow
fast
+/-
esc
set tempo
stop
-------------------------------------------------------------------------------
                             Mercyful Fate - Metallica
-------------------------------------------------------------------------------

before reading, this may not be the best but please drop me a suggestion and i will work
on whatever thank u!!!!!!!\m/

Tabbed by:MetallicaDMRTL
Tuning: half step 5string

"COME COME!!! INTO MY MASTER BASS TAB!!!" and btw thanks for waiting this took a while!
and i marked it as advanced cause its not hard playing but to rember it all is a pain,
SO DO UR HOMEWORK AND STUDY THIS!! i know i havnt made a tab (let alone master) in
forever, but i am like half way done with master for roam so look forward to that and
thanks for all the views :) my beyond magnetic is almost at a 1000 views :) thanks!!! btw
into the coven and evil was fucking difficult, so please appericate its just about spot 
on took awhile but i think i got it and now here is the full master bass tab for the huge
musical piece "mercyful fate" ENJOI!!! ps i wanna see a utube video of this PERFECT!!!

link for master,

http://www.youtube.com/watch?v=JEXv3jq4Er4



So It Begins...
Gb|-------------------------------------------------------------|
Db|-------------------------------------------------------------|
Ab|-------------------------------------------------------------| x3
Eb|-0-2-22--0-2-22--0-2-22/7-5--0-2-22--0-2-22--0-2-22--3-0-0h3-|
Bb|-------------------------------------------------------------|

Gb|----------------------------------------------|
Db|----------------------------------------------|
Ab|----------------------------------------------|
Eb|-0-2-22--0-2-22--0-2-22/7-5/7-7-8\3-3-3-3-3-3-|
Bb|----------------------------------------------|

Gb|------------------------------------------------|
Db|------------------------------------------------|
Ab|------------------------------------------------|
Eb|-0-2-22--0-2-22--0-2-22/7-5/7-7-8\3-3-3-3-3-3-2-|
Bb|------------------------------------------------|

Gb|---------------------|
Db|---------------------|
Ab|---------------------|
Eb|-5\---55\---55\---5\-|
Bb|---------------------|

Gb|----------------|----------|---------|-----------|
Db|----------------|----------|---------|-----------|
Ab|----------------|----------|---------|------*--*-|
Eb|-10\0h2-2-2-202-|-2-2-2025-|-2-2-202-|-2-2-20--0-|
Bb|----------------|----------|---------|-----------|

Gb|-------------|----------|---------|-----------|
Db|-------------|----------|---------|-----------|
Ab|-------------|----------|---------|------*--*-| x2
Eb|-0h2-2-2-202-|-2-2-2025-|-2-2-202-|-2-2-20--0-|
Bb|-------------|----------|---------|-----------|

Gb|-----------|----------|---------|---------|
Db|-----------|----------|---------|---------|
Ab|-----------|----------|---------|---------|
Eb|-0h2-2-2-2-|-2-202025-|-2-2-202-|-2-2-202-|
Bb|-----------|----------|---------|---------|

Gb|------------------------------------------------------------|
Db|------------------------------------------------------------|
Ab|----------------------------2-4-2-2-2-2-2-0-2-4-4-4-4-4-4-4-|
Eb|-4--4-4-4-4-4-2-4-5-5-5-5-5---------------------------------|
Bb|------------------------------------------------------------|

Gb|---------------------------|-----------------------------|
Db|---------------------------|-----------------------------|
Ab|--------------3-2--3-2-----|--------------5-4--5-4-------|
Eb|-2-0-2-5-2--0----------5-0-|-2-0-2-5-2--0----------0--5\-|
Bb|---------------------------|-----------------------------|

Gb|---------------------------|-----------------------------------8-----|
Db|---------------------------|---------------------------------8---8---|
Ab|--------------3-2--3-2-----|--------------5-4--5-4-4/7-7-7-6-------6-|
Eb|-2-0-2-5-2--0----------5-0-|-2-0-2-5-2--0----------------------------|
Bb|---------------------------|-----------------------------------------|

Gb|-------|
Db|-*-----|
Ab|-5-----|
Eb|-------|
Bb|---7\--|

Gb|--------------------------|
Db|--------------------------|
Ab|--------------------------| x4
Eb|-0-2-x-x2-3-x-x5-2-x-x7-5-|
Bb|--------------------------|

Gb|---------------------------------|
Db|---------------------------------|
Ab|-4-4-444-444-444-444-444-2-2-0-2-|
Eb|---------------------------------|
Bb|---------------------------------|

Gb|-------------------------|
Db|-------------------------|
Ab|-4-444-4-444-4-444-2-002-|
Eb|-------------------------|
Bb|-------------------------|

Gb|---------------------------|
Db|---------------------------|
Ab|-4-444-4-444-4-444-2-2-0-2-|
Eb|---------------------------|
Bb|---------------------------|

Gb|-------------------------------|
Db|-------------------------------|
Ab|-4-4-444-4-4-4-4-4-4-4-4-2-2-0-|
Eb|-------------------------------|
Bb|-------------------------------|

Gb|--------------------------|
Db|--------------------------|
Ab|--------------------------| x4
Eb|-0-2-x-x2-3-x-x5-2-x-x7-5-|
Bb|--------------------------|

Gb|----------------------------|    |----------------------------|
Db|--------2------3------2-----|    |----------------------------|
Ab|-5-2-2-2--2-2-2--2-2-2--2-2-| x2 |--------2------3------2-----| x2
Eb|----------------------------|    |-5-2-2-2--2-2-2--2-2-2--2-2-|
Bb|----------------------------|    |----------------------------|

Gb|---------------------------------------------------------------------------|
Db|---------------------------------------------------------------------------|
Ab|-7---5--5-4-3-2\1/222-222-222-222-222-222-0-2-5-222-222-222-222-222-222*-*-|
Eb|-0---------------------------------------------------------------------0-0-|
Bb|---------------------------------------------------------------------------|

Gb|-------------------------------------|
Db|-------------------------------------|
Ab|---------------------------------*-*-|
Eb|-0h2-2-2-20202-2-2025-2-2-202-2-20-0-|
Bb|-------------------------------------|

Gb|--------------------------------------|
Db|--------------------------------------|
Ab|--------------------------------------|
Eb|-0h2-2-2-202-2-2-2025-2-2-202-2-2-202-|
Bb|--------------------------------------|

Gb|------------------------------------------------------------|
Db|------------------------------------------------------------|
Ab|----------------------------2-4-2-2-2-2-2-0-2-4-4-4-4-5-4-2-|
Eb|-4--4-4-4-4-4-2-4-5-5-5-5-5---------------------------------|
Bb|------------------------------------------------------------|

Gb|---------------------------|-----------------------------|
Db|---------------------------|-----------------------------|
Ab|--------------3-2--3-2-----|--------------5-4--5-4-------|
Eb|-2-0-2-5-2--0----------5-0-|-2-0-2-5-2--0----------0--5\-|
Bb|---------------------------|-----------------------------|

Gb|---------------------------|-----------------------------|
Db|---------------------------|-----------------------------|
Ab|--------------3-2--3-2-----|--------------5-4--5-4-------|
Eb|-2-0-2-5-2--0----------5-0-|-2-0-2-5-2--0----------0--5\-|
Bb|---------------------------|-----------------------------|

Gb|---------------------------|
Db|-*-----*-----*-----*-------|
Ab|-3-2\--3-5\--2-3\--1-2\----|
Eb|------------------------5\-|
Bb|---------------------------|

Gb|-----------------------------------------|
Db|-----------------------------------------|
Ab|-5-5------3------------------3-------3---|
Eb|------5-55--555-555-554h5-555--555-55--3-|
Bb|-----------------------------------------|

Gb|------------------------------------|
Db|------------------------------------|
Ab|------------------------3-------3---|
Eb|-5-555-555-555-554h5-555--555-55--3-|
Bb|------------------------------------|

Gb|-------------------------------------|
Db|-------------------------------------|
Ab|---------------------------------3---| x3
Eb|-5-555-554h5-555-554h5-555-555-55--3-|
Bb|-------------------------------------|

Gb|---------------------------------------|
Db|---------------------------------------|
Ab|-------------------------------*-*-3---|
Eb|-5-555-554h5-555-554h5-555-555-5-5---3-|
Bb|---------------------------------------|

Gb|---------------------|
Db|---------------------|
Ab|-5---2-2-2-3---3-5---|
Eb|-------------------5-|
Bb|---------------------|

Gb|---------------------------------------|
Db|---------------------------------------|
Ab|-3--------3----------------3-------3---|
Eb|---3--5-55--555-555-555-555--555-55--3-|
Bb|---------------------------------------|

Gb|-------------------------------------|
Db|-------------------------------------|
Ab|---------------------------------3---| x3
Eb|-5-555-554h5-555-554h5-555-555-55--3-|
Bb|-------------------------------------|

Gb|--------------|----------------------------|
Db|--------------|----------------------------|
Ab|-5---2-2-2-3--|-5-3-2-3-2-0--------------0-|
Eb|--------------|-------------7-5-3-5-3-2----|
Bb|--------------|----------------------------|

Gb|-----------|------|
Db|-----------|------|
Ab|-3---------|------|
Eb|----3-5-5\-|-5-5\-|
Bb|-----------|------|

Gb|--------------------------------------------------------------|
Db|--------------------------------------------------------------|
Ab|------------3-----------------------------------------3-3-353-|
Eb|-3h5-5-5-3h5--5-5-5-5-5-5-5-5-3-3-3-3-3-3-3-3-1-1-1-1---------|
Bb|--------------------------------------------------------------|

Gb|-----------------------------------------------------------|
Db|-----------------------------------------------------------|
Ab|-----------------------3--------------------------3-3-353/-|
Eb|-5--5-5-5-5-5-5-5-5-5-5-5-3-3-3-3-3-3-353-1-1-1-1----------|
Bb|-----------------------------------------------------------|

Gb|--------------------|------------------------------|
Db|--------------*---*-|------------------------------|
Ab|-8-5--5--3-5--5-6-6-|-8-5--5--3-5--5-5-6-6-7-7-8-8-|
Eb|--------------------|------------------------------|
Bb|--------------------|------------------------------|

Gb|------------------------------------------------------------|
Db|------------------------------------------------------------|
Ab|------------3------------3--------------------------3-3-353-|
Eb|-3h5-5-5-3h5--5-5-5-5-5-5-5-3-3-3-3-3-3-353-1-1-1-1---------|
Bb|------------------------------------------------------------|

Gb|---------------------------------------------------------|
Db|---------------------------------------------------------|
Ab|--------------3-----3----------------------------3-3-353-|
Eb|-5-5-5-5-5-3h5-5p3h5-5p3-5--3--3--3--3-351-1-1-1---------|
Bb|---------------------------------------------------------|

Gb|--------------------------------------------------------|
Db|--------------------------------------------------------|
Ab|-------------------------*----------------------2-3-4---|
Eb|-2-2-2-2-2-2-2-2-2-2-2-2-3--2-2-2-2-2-2-2-2-2-5-------0-|
Bb|--------------------------------------------------------|

Gb|-------------------------------------------------------|
Db|-------------------------------------------------------|
Ab|-------------------------*-----------------------------|
Eb|-2-2-2-2-2-2-2-2-2-2-2-2-3--2-2-2-2-2-2-2-2-2-5-2-5--0-|
Bb|-------------------------------------------------------|

Gb|--------------------------------------------------------------|
Db|--------------------------------------------------------------|
Ab|----------------3----------3--------------------------3-3-353-|
Eb|-/5--5-5-5-5-3h5--5-5-5-5-5-5-3-3-3-3-3-3-353-1-1-1-1---------|
Bb|--------------------------------------------------------------|

Gb|----------------------------------------------------------|
Db|----------------------------------------------------------|
Ab|--------------3-------5-3-------------------------3-3-353-|
Eb|-5-5-5-5-5-3h5--5-5-3-----3-3-3-3-3-3-353-1-1-1-1---------|
Bb|----------------------------------------------------------|

Gb|------------------------------------------------------------|
Db|------------------------------------------------------------|
Ab|--------------3----------3--------------------------3-3-353-|
Eb|-5-5-5-5-5-3h5--5-5-5-5-5-5-3-3-3-3-3-3-353-1-1-1-1---------|
Bb|------------------------------------------------------------|

Gb|------------------------------------------------------------|
Db|------------------------------------------------------------|
Ab|--------------3----------3--------------------------3-3-353-|
Eb|-5-5-5-5-5-3h5--5-5-5-5-5-5-3-3-3-3-3-3-353-1-1-1-1---------|
Bb|------------------------------------------------------------|

Gb|--------------------------------------------------------|
Db|--------------------------------------------------------|
Ab|-------------------------*----------------------2-3-4---|
Eb|-2-2-2-2-2-2-2-2-2-2-2-2-3--2-2-2-2-2-2-2-2-2-5-------0-|
Bb|--------------------------------------------------------|

Gb|-------------------------------------------------------|
Db|-------------------------------------------------------|
Ab|-------------------------*-----------------------------|
Eb|-2-2-2-2-2-2-2-2-2-2-2-2-3--2-2-2-2-2-2-2-2-2-5-2-5--0-|
Bb|-------------------------------------------------------|

Gb|-----------------------|
Db|-----------------------|
Ab|-3-3-3-3-3-3-3-3-------|
Eb|-----------------3-2-0-|
Bb|-----------------------|

Gb|----------|
Db|----------|
Ab|-5-7-5-7\-|
Eb|----------|
Bb|----------|

Gb|-------------------------------|
Db|-------------------------------|
Ab|-5-7-5----7/10-7-77/10-7-77/10-| x2
Eb|-------0-----------------------|
Bb|-------------------------------|

Gb|---------|
Db|---------|
Ab|-5-7-5-2-|
Eb|---------|
Bb|---------|

Gb|---------------------------|
Db|---------------------------|
Ab|-2-2-2-2-2-2-2-2-2-0-2-5-2-| x2
Eb|---------------------------|
Bb|---------------------------|

Gb|-------------------------|
Db|-------------------------|
Ab|-2---------------0-2-5-2-|
Eb|---3-3-3-3-3-3-3---------|
Bb|-------------------------|

Gb|---------------------------|
Db|---------------------------|
Ab|-2-2-2-2-2-2-2-2-2-0-2-5-2-| x3
Eb|---------------------------|
Bb|---------------------------|

Gb|-------------------------|
Db|-------------------------|
Ab|-2---------------0-2-5-2-|
Eb|---3-3-3-3-3-3-3---------|
Bb|-------------------------|

Gb|-----------------------------|
Db|-----------------------------|
Ab|-2-2-2-2---------------------|
Eb|---------5-3--3-3-3-3-2-1-0--|
Bb|-----------------------------|

Gb|----------------------|
Db|----------------------|
Ab|-7/10-7-77/10-7-77/10-|
Eb|----------------------|
Bb|----------------------|

Gb|-------------------------------|
Db|-------------------------------|
Ab|-5-7-5-7--7/10-7-77/10-7-77/10-|
Eb|-------------------------------|
Bb|-------------------------------|

Gb|-------------------------------|
Db|-------------------------------|
Ab|-5-7-5----7/10-7-77/10-7-77/10-| x2
Eb|-------0-----------------------|
Bb|-------------------------------|

Gb|--------------------------------------------------------|
Db|--------------------------*-----------------------------|
Ab|-5-7-5--------------------5-33--333-333-333-333-333-333-|
Eb|-------2--2-2-2-2-2-2-2-2-------------------------------|
Bb|--------------------------------------------------------|

Gb|-------------------------------------------------------------|
Db|-------------------------------------------------------------|
Ab|---**--------------------------2-3-4--4--444-444-444-444-444-|
Eb|-7-55--555-555-555-555-555-555-------------------------------|
Bb|-------------------------------------------------------------|

Gb|-------------------------------|
Db|-------*-----------------------|
Ab|-5-7-5-7--7/10-7-77/10-7-77/10-|
Eb|-------------------------------|
Bb|-------------------------------|

Gb|-------------------------------|
Db|-------------------------------|
Ab|-5-7-5-7--7/10-7777/10-7777/10-| x2
Eb|-------0-----------------------|
Bb|-------------------------------|

Gb|-------------------------------|
Db|-------------------------------|
Ab|-5-7-5-7--7/10-7777/10-7777/10-|
Eb|-------------------------------|
Bb|-------------------------------|

Gb|--------------------------------------------------------|
Db|--------------------------------------------------------|
Ab|-5-7-5--------------------5-3-3-333-333-333-333-333-333-|
Eb|-------2--2-2-2-2-2-2-2-2-------------------------------|
Bb|--------------------------------------------------------|

Gb|---------------------------------------------------------|
Db|---------------------------------------------------------|
Ab|-*-----------------------------2-3-4-444-444-444-444-444-|
Eb|-7-55--555-555-555-555-555-555---------------------------|
Bb|---------------------------------------------------------|

Gb|-------------------------------|
Db|-------------------------------| treat the "4-4-5-7" like the
Ab|-4-4-5-7--7/10-7-77/10-7-77/10-| "5-7-5-7" part (its weird)
Eb|-------------------------------|
Bb|-------------------------------|

Gb|-------------------------------|
Db|-------------------------------|
Ab|-5-7-5----7/10-7-77/10-7-77/10-| x2
Eb|-------0-----------------------|
Bb|-------------------------------|

Gb|-------------------------------|
Db|-------------------------------|
Ab|-5-7-5-7--7/10-7-77/10-7-77/10-|
Eb|-------0-----------------------|
Bb|-------------------------------|

Gb|----------------------------|
Db|----------------------------|
Ab|-5-7-5----------------------|
Eb|-------5--5/8-5-55/8-5-55/8-|
Bb|----------------------------|

Gb|-------------------------------------|
Db|-------------------------------------|
Ab|-------------------------------------|
Eb|-3-5-3-5--5/8-5-55/8-5-55/8--3-5-3-5-|
Bb|-------------------------------------|

Gb|--------------------------------------------|
Db|---------------------*----------------------| the stacatos here are
Ab|---------5-3---------3----------5-3---------| up strums
Eb|-5-5-3-5-----3-3-1-1----5-5-3-5-----3-3-1-1-|
Bb|--------------------------------------------|

Gb|-----------------------------------------------------|
Db|-----------------------*---------------------------*-| the stacatos here
Ab|----------5-3--------0h3-----------5-3-----------0h3-| are up strums
Eb|-/5-5-3-5-----3-3-1-1-----5-5-3-5------3-3-3-1-1-----|
Bb|-----------------------------------------------------|

Gb|-----------------------------------------------|
Db|---------------------*-------------------------| the stacatos here are
Ab|----------5-3--------3-----------5-3--*-*--*-*-| up strums minus the
Eb|-/5-5-3-5------3-3--1----5-5-3-5------3-3--1-1-| 4, those are just short
Bb|-----------------------------------------------| and fat

Gb|---------------------------------------------|
Db|---------------------*---------------------*-| the stacatos here are
Ab|---------5-3---------3-----------5-3-------3-| up strums
Eb|-/5-5-3-5-----3-3-1-1----5-5-3-5-------------|
Bb|-------------------------------------8-8\6/--|

Gb|-----------------------------------|
Db|-----------------------------------|
Ab|--------3--------/5-5-353-1--1/5-3-|
Eb|-1-1--1---1-5-5--------------------|
Bb|-----------------------------------|

Gb|-------------------------------------|
Db|-------------------------------------|
Ab|--------3--------/5-5-3-3-3-1--1/5-3-|
Eb|-1-1--1---1-5-5----------------------|
Bb|-------------------------------------|

Gb|----------------*------------------|      *
Db|----------------3------------------| the "3" is a pluck i believe
Ab|--------3---------5-5-353-1--1/5-3-|
Eb|-1-1--1---1-5-5/-------------------|
Bb|-----------------------------------|

Gb|---------------------------------------|
Db|---------------------------------------|
Ab|--------3--------/5-5-353-1--1-1-1/5-3-|
Eb|-1-1--1---1-5-5------------------------|
Bb|---------------------------------------|

Gb|-----------------------------------------------|
Db|----------------3/5h7p5------------------------| this fill was hard to
Ab|--------3---------------7-5-5-353-1--1-1-1/5-3-| figure out so im like
Eb|-1-1--1---1-5-5--------------------------------| 95% sure on it
Bb|-----------------------------------------------|

Gb|--------------------------------------------|
Db|--------------------------------------------| for the "1/5" simply only
Ab|--------3--------/5-5-353-1--1/(5)---0------| slide up to 5 and then 
Eb|-1-1--1---1-5-5-----------------------------| release it and strum
Bb|--------------------------------------------| an open G#

Gb|--------------|
Db|--------------|
Ab|------------1-| x4
Eb|-33333333-1---|
Bb|--------------|

Gb|--------------|
Db|--------------|
Ab|--------------| x4
Eb|-66666666-4-6-|
Bb|--------------|

not sure here, this is fast and hard to tell, but i think i got it!
Gb|--------------------------------------|
Db|--------------------------------------|
Ab|----------------------------------***-|
Eb|-88888888-888-888-888-888-888-888-868-|
Bb|--------------------------------------|

Gb|---------------------------------|
Db|---------------------------------|
Ab|-----------------------------***-|
Eb|-888-888-888-888-888-888-888-868-|
Bb|---------------------------------|

Gb|-----------------------------------------------------------|
Db|-----------------------------------------------------------| 
Ab|-----------------------------------------------------------| 
Eb|-888-888-888-888-888-6-8-6-8-6-8-668-668-6680-7-5----------| 
Bb|-----------------------------------------------------------|

back home, but the fills are swapped
Gb|-------------------------------------------------------------|
Db|-------------------------------------------------------------|
Ab|-------------------------------------------------------------|
Eb|-0-2-22--0-2-22--0-2-22--3-0-0h3--0-2-22--0-2-22--0-2-22/7-5-|
Bb|-------------------------------------------------------------|

Gb|-------------------------------------------------------------------|
Db|-------------------------------------------------------------------|
Ab|-------------------------------------------------------------------|
Eb|-0-2-22--0-2-22--0-2-22--3-0-0h3--0-2-22--0-2-22--0-2-22/7-5--2-2\-|
Bb|-------------------------------------------------------------------|

that is finally fucking it!!! almost 14 days later and the beast is slained!
any problems please please please please please! send me a message and i will do my best
cause it may not be 100% but goddamn near it

MetallicaDMRTL

                          \m/Metallica\m/

            
            
Suggest correction
Creating personal tab
Creating personal tab
You can edit any tab online and save it as your Personal.

You can edit, replace or remove any tab part or add personal notes – all changes will be seen only by you.

Personal tabs can be accessed anytime from any device, even offline.
Learn more »
Give kudos to tab author, rate the tab!
1 2 3 4 5
comments
print report bad tab
1 comment total.
0 reply
heavybassist 131 Oct 13, 2017 06:58 PM

This song made listen to Mercyful Fate

guest
You may want to rate the tab now too:
select rating
Wanna post a correction for this tab? Suggest correction