Oops, an error
Loading. Please wait.

No Leaf Clover bass

version 3
version 3
752 views 1 this week
no commentswrite comment
1 2 3 4 5
3 more votes to show rating
add to favorites
×
Save as Personal and add changes to this tab that will be seen only by you. Learn more ›
×
You can save this tab as Personal to edit and correct it or add notes. All changes will be seen only by you. Learn more »
launch autoscroll
font size
0
reset
guitar tuner
backing track
0:00
0:00
edit
Autoscroll
slow
fast
+/-
esc
set tempo
stop
-------------------------------------------------------------------------------
           Metallica & The San Francisco Symphony - No Leaf Clover

-------------------------------------------------------------------------------

          "You guys here the one about the band and the Orchestra?"


Tabbed by: Metallicadmrtl
Tuning:half step 5 string

"its comin ur wayyyyy" sup girls and gents yet another master bass tab and may i say
dont fucking hate on jason, metallicas bassist are all immortal and good, minus Rob H. but
anyways this is damn near perfect, and some of this was hard to tab so please drop a 
correction :) so enjoi, personal favorite :3, and also im gonna make a "SM Ktulu Master" and
"Roam Master" and thats every master bass avaliable then i might stack it all together 
to one master collection but for sure have them all done, and ps i have all the master 
dm`s wrote out just need to type them up and load em but otherwise heres clover\m/


                                master link:

                 http://www.youtube.com/watch?v=vnQ2f7wn3OU


  At 1:01
Gb|-----------|---------------------------|------------------------------|
Db|-----------|---------------------------|------------------------------|
Ab|-2----3-2--|---------7-----------------|-----5h7--------7-------------|
Eb|----0------|-5h7-0-0-0-0-0-7-7-7-7-8-7-|-5h7-----0--0-0---7-7-7-7-8-7-|
Bb|-----------|---------------------------|------------------------------|

Gb|---------------------------|-punch the stars and be quite-|
Db|---------------------------|-with the other 2's-----------|
Ab|--------7------------------|-*-----*----------------------|
Eb|-5h7-0--0--0-0-7-7-7-7-8-7-|-2-2-2-2-2-2/7-7-7-7-8-7------|
Bb|---------------------------|------------------------------|

Gb|-------------------|-----------|--------------------|-----------|
Db|-----7-----9-------|-----------|--------------------|-----------|
Ab|-------------------|---2---3-2-|-----10-------9-----|---2---3-2-|
Eb|-5-5---557---7-7-7-|-0---0-----|-8-8----8-8-7---7-7-|-0---0-----|
Bb|-------------------|-----------|--------------------|-----------|

Gb|---------------------------|-------------------|-----------|
Db|---7-----------------------|-------------------|-----------|
Ab|-----------9---9----9------|-*-*-*---*---*-----|---2---3-2-|
Eb|-5---5-557---7---57---7-55-|-7-7-7-*-7-*-7-----|-0---0-----|
Bb|---------------------------|-------0---0---12\-|-----------|

Gb|-------------------|-----------|--------------------|-----------|
Db|-----7-----9-------|-----------|--------------------|-----------|
Ab|-------------------|---2---3-2-|--------------------|---2---3-2-|
Eb|-5-5---557---7-----|-0---0-----|-8-8-888--7--7------|-0---0-----|
Bb|---------------12\-|-----------|----------------12\-|-----------|

Gb|-----------------------------------------------------|
Db|---7----------------5----------------*-*-*-*-*-*-*-*-|
Ab|---------------------------2--2--22--2-3-2-3-2-3-2-3-|
Eb|-5---5-557-7--7-7-3---3--33--------------------------|
Bb|-----------------------------------------------------|

Gb|---|
Db|-5-| random D5? its audible but i think its not important
Ab|---|             optional play i guess
Eb|---|
Bb|---|

Gb|---------------*--------------|---------------*--------------|-----------|
Db|-*-------5-7---9-9---7--9-7-5-|-*-------5-7---9-9--7h9-7-----|-----------|
Ab|-7-7---7----------------------|-7-7---7----------------------|---2---3-2-|
Eb|------------------------------|------------------------------|-0---0-----|
Bb|------------------------------|--------------------------12\-|-----------|

Gb|-------------------|-------------|---------------------|-----------|
Db|-----7-------------|-------------|---------------------|-----------|
Ab|-------------------|---2--2--3-2-|-------10------------|---2---3-2-|
Eb|-5-5---557-7-7-----|-0-----------|-8-8-8----8--877-----|-0---0-----|
Bb|---------------12\-|-------------|-----------------12\-|-----------|

Gb|------------------------------------------------------|
Db|-----7-------|fast-----5--------------*-*-*-*-*-*-*-*-|
Ab|-------------|----------------2--2-2--2-3-2-3-2-3-2-3-|
Eb|-5-5---5-7---7-8-7-5-3---3--33------------------------|
Bb|------------------------------------------------------|

Gb|---------------------*---------------|-------------------*-------------|
Db|-----------5-7---5-7-9-9--7--7-9-7-5-|---------5-7---5-7-9-9--7--9-7-5-|
Ab|-3-5-7---7---------------------------|-7-7---7-------------------------|
Eb|-------------------------------------|---------------------------------|
Bb|-------------------------------------|---------------------------------|

Gb|---5-----------4------------------------|
Db|----------------------------7h9-7h9-7-5-|
Ab|-3---3-3h5p3p2----2/7--7-10-------------|
Eb|----------------------------------------|
Bb|----------------------------------------|

Gb|-----5--------------------------------------|
Db|---5---5------------------------------------|
Ab|-3-------5-5-5-57-*-*-*-*-*-*-*-*-----------| slow slide down fast up tho
Eb|------------------7-8-7-8-7-8-7-8-8\\\\0//8-|
Bb|--------------------------------------------|

Gb|---------------------------|----------------------------|
Db|---------------------------|----------------------------|
Ab|---------7-----------------|-----5h7--------------------|
Eb|-0-0-0-0---0-0-7-7-7-7-8-7-|-5h7-----0--0-0-7-7-7-7-8-7-|
Bb|---------------------------|----------------------------|

Gb|-------------------------|-------------------------|
Db|-------------------------|-------------------------|
Ab|-------7-----------------|-*-----*-----------------|
Eb|-5h7-0---0-0-7-7-7-7-8-7-|-2-2-2-2-2-2/7-7-7-7-8-7-|
Bb|-------------------------|-------------------------|

Gb|-------------------------|----------------------------|
Db|-------------------------|----------------------------|
Ab|-------7-----------------|-----5h7--------------------|
Eb|-5h7-0---0-0-7-7-7-7-8-7-|-5h7-----0--0-0-7-7-7-7-8-7-|
Bb|-------------------------|----------------------------|

Gb|--------------------------|-------------------------|
Db|-----^ -BEND TO 7- -------|-------------------------|
Ab|-----6--------------------|-*-----*-----------------|
Eb|-5h7---0--0-0-7-7-7-7-8-7-|-2-2-2-2-2-2/7-7-7-7-8-7-|
Bb|--------------------------|-------------------------|

Gb|------------------------------------------------------------|
Db|------------------------------------------------------------|
Ab|------------------------------------------------------------| x3
Eb|--------------3--3-------------6--6-------------------------|
Bb|-555-5-555-555----555-5-555-555----555-5-555-5556--5-6--5-6-|

Gb|--------------------------------------------------------------|
Db|--------------------------------------------------------------|
Ab|--------------------------------------------------------------|
Eb|-------555-5557--5777-7-775-5557--7------555-55-5-7----7--5-7-|
Bb|-555-5-----------------------------555-5-------------0--------|

Gb|------------------------------------|
Db|-------------7----------------------|
Ab|-----7------------------------------|
Eb|-0-0---3/5-5---5-557-7-7-775-5-5753-|
Bb|------------------------------------|

Gb|------------------------------------|
Db|-------------7----------------------|
Ab|-----7------------------------------|
Eb|-0-0---3/5-5---5-5-7-7-7-775-5-5553-|
Bb|------------------------------------|

Gb|---------------------------------------|
Db|-------------9-------------------------|
Ab|-----7-------------------10------------|
Eb|-0-0---3/7-7---7-778-8-8---87-7-7-7-75-|
Bb|---------------------------------------|

Gb|----------------------------------|
Db|-------------9--------------------|
Ab|-----7----------------------------|
Eb|-0-0---3/7-7---7-778-8-887-778753-|
Bb|----------------------------------|

Gb|------------------------------------------------|
Db|------------------------------------------------|
Ab|------------------------------10----------------|
Eb|-----0-007-7-7-7-7-8--8-8-8-8----8-7--7-7-7-5-3-|
Bb|-555--------------------------------------------|

Gb|-----------------------------------------------|
Db|-----------------------------------------------|
Ab|-----7-----------------------------------------|
Eb|-0-0---3/7--7-7-7--7-7-8--8-8-8--8-8-7--7-7-7\-|
Bb|-----------------------------------------------|

Gb|------------------------------------------------------|-------|
Db|------------------------------------------------------|-------|
Ab|------------------------------------------------------|-------|
Eb|--------------3---------------------------------------|-------|
Bb|-555-5-555-555---555-5-555-5556--5-6--5-6--5~~~~~\\\\---------|


again feel free too leave any corrections cause the 4th bar of the low B part where it
changes i think i have it but idk difficult to play on and to tab but whatever, enjoi!!!

MetallicaDMRTL
                            \m/Metallica\m/

            
            
Suggest correction
Creating personal tab
Creating personal tab
You can edit any tab online and save it as your Personal.

You can edit, replace or remove any tab part or add personal notes – all changes will be seen only by you.

Personal tabs can be accessed anytime from any device, even offline.
Learn more »
Give kudos to tab author, rate the tab!
1 2 3 4 5
comments
print report bad tab
guest
You may want to rate the tab now too:
select rating
Wanna post a correction for this tab? Suggest correction