Oops, an error
Loading. Please wait.
We have an official No Remorse tab made by UG professional guitarists. Check out the tab »
×
21,897 views 60 this week
10 commentsread comments
1 2 3 4 5
x 9
add to favorites
×
Save as Personal and add changes to this tab that will be seen only by you. Learn more ›
×
You can save this tab as Personal to edit and correct it or add notes. All changes will be seen only by you. Learn more »
launch autoscroll
font size
0
reset
how to read this tab
guitar tuner
backing track
0:00
0:00
edit
Autoscroll
slow
fast
+/-
esc
set tempo
stop
Author
Difficulty
Metallica - No Remorse

Tabbed by: Chase Grimes
Email: bigbucksgrimes@yahoo.com

Tuning: Guitar 1 (James Hetfield) - EADGBe (standard)
        Guitar 2 (Kirk Hammett) - EADGBe (standard)

Software used:
Amazing Slow Downer
Limewire
mp3DirectCut

Key:

 r     return bend
 b     bend
 b1/4  bend 1/4 of a fret
 /     slide up
 \     slide down
 h     hammer-on
 p     pull-off
 ~     vibrato
 +     pinched harmonic
 x     dead note
 *     palm mute



Song Order for Guitar 1 (James Hetfield):
Part 1  x10
Part 2  x6
Part 3  x1
Part 4  x2
Part 2  x6
Part 3  x1
Part 4  x2
Part 5  x10
Part 6  x1
Part 2  x4
Part 3  x1
Part 4  x2
Part 7  x4
Part 8  x2
Part 7  x2
Part 8  x2
Part 7  x2
Part 9  x1

Song Order for Guitar 2 (Dave Mustaine):
Lead 1  x1
Lead 2  x1
Lead 3  x1



----------------------------------------------------------------------------



Part 1 - Guitar 1
(00:00) - (00:05)
(00:05) - (00:10)
(00:10) - (00:15)
(00:15) - (00:21)
(00:21) - (00:26)
(00:26) - (00:31)
(00:31) - (00:36)
(00:36) - (00:41)
(00:41) - (00:46)
(00:46) - (00:52)

       * *      * *      * *
e|------------------------------------|
B|------------------------------------|
G|------------------------------------|
D|--------------------------------2---|
A|2-/4-----4-\2-----2-/4-----4-\2-0---|
E|0-h2-2-2-2-p0-0-0-0-h2-2-2-2-p0-----|

       * *      * *      * *
e|------------------------------------|
B|------------------------------------|
G|------------------------------------|
D|--------------------------------4---|
A|2-/4-----4-\2-----2-/4-----4-\2-2---|
E|0-h2-2-2-2-p0-0-0-0-h2-2-2-2-p0-----|



Lead 1 - Guitar 2
(00:10) - (00:42)

e|14----14----14----14----14----14----14----14----14----14----14----|
B|17b19-17b19-17b19-17b19-17b19-17b19-17b19-17b19-17b19-17b19-17b19-|
G|------------------------------------------------------------------|
D|------------------------------------------------------------------|
A|------------------------------------------------------------------|
E|------------------------------------------------------------------|


e|14-17p14----14-17p14-17p14----14-17p14-17p14----14-17p14-17p14----|
B|---------17----------------17----------------17----------------17-|
G|------------------------------------------------------------------|
D|------------------------------------------------------------------|
A|------------------------------------------------------------------|
E|------------------------------------------------------------------|


e|14-17p14-17p14----14---17p14h17-17b19------------17b19~~~~~-------|
B|---------------17-------------------------------------------------|
G|------------------------------------------------------------------|
D|------------------------------------------------------------------|
A|------------------------------------------------------------------|
E|------------------------------------------------------------------|


e|17---14-17p14----14-17p14-----------------------------------------|
B|--------------17----------17-14-17p14-----------------------------|
G|----------------------------------------16---14--------14---16b18-|
D|--------------------------------------------------16--------------|
A|------------------------------------------------------------------|
E|------------------------------------------------------------------|


e|14----------------------------------------------------------------|
B|14---17p14----14-17p14----14-17p14----14-17p14--------------------|
G|-----------16----------16----------16----------16---14\-----------|
D|------------------------------------------------------------------|
A|------------------------------------------------------------------|
E|------------------------------------------------------------------|


e|------------------------------------------------------------------|
B|------2-5p2---2-5p2-5p2-5p2---5---2-------------------------------|
G|4--b6-------4-------------------------4---2-------2---4---4b6r4-2-|
D|----------------------------------------------4-------------------|
A|------------------------------------------------------------------|
E|------------------------------------------------------------------|


e|----------------------------------------------------------|
B|----------------------------------------------------------|
G|------2---4p2---------------------------------------------|
D|--4-----------4---2-------------------------------2-----2-|
A|----------------------4---2---0-------0---2---4-----------|
E|----------------------------------2-----------------------|


e|------------------------------------------------5p2h5p2h5p2h5p2-|
B|--------------------------------5p2h5p2h5p2h5p2-----------------|
G|----------------4p2h4p2h4p2h4p2---------------------------------|
D|4p2h4p2h4p2h4p2-------------------------------------------------|
A|----------------------------------------------------------------|
E|----------------------------------------------------------------|


e|-5p2---------------------------------------------|
B|-------5---2-------------------------------------|
G|---------------4---2-------2---4---4b6r4---2-----|
D|-----------------------4-----------------------4-|
A|-------------------------------------------------|
E|-------------------------------------------------|


e|----14-17p14----14-17p14-20p14-17p14----14-17p14-20p14-17p14----|
B|/17----------17----------------------17----------------------17-|
G|----------------------------------------------------------------|
D|----------------------------------------------------------------|
A|----------------------------------------------------------------|
E|----------------------------------------------------------------|


e|14-17p14-20p14-17p14----14-17p14----14-17p14--------------------|
B|---------------------17----------17------------17---14----------|
G|---------------------------------------------------------16---14|
D|----------------------------------------------------------------|
A|----------------------------------------------------------------|
E|----------------------------------------------------------------|


e|-----------------------------------------------|
B|-----------------------------------------------|
G|--------14---16b18---16b18---16b18~~~~~-----14-|
D|---16------------------------------------------|
A|-----------------------------------------------|
E|-----------------------------------------------|


e|--------------------------------17b19---17b19---17b19~~~~~---17-|
B|17b19--------17b19~~~-----17-14---------------------------------|
G|----------------------------------------------------------------|
D|----------------------------------------------------------------|
A|----------------------------------------------------------------|
E|----------------------------------------------------------------|


e|14-17p14--------------------------------------------------------|
B|---------17--19p17-14--17p14------------------------------------|
G|-----------------------------16--18p16-14--16p14----------------|
D|-------------------------------------------------16-14----14-16-|
A|-------------------------------------------------------16-------|
E|----------------------------------------------------------------|


e|---------------|
B|---------------|
G|---------------|
D|14-------------|
A|---16-14\12----|
E|------------14\|



Part 2 - Guitar 1
(00:52) - (00:57)
(00:57) - (01:02)
(01:02) - (01:07)
(01:07) - (01:12)
(01:12) - (01:17)
(01:17) - (01:22)
(01:52) - (01:57)
(01:57) - (02:02)
(02:02) - (02:07)
(02:07) - (02:12)
(02:12) - (02:17)
(02:17) - (02:22)
(03:53) - (03:58)
(03:58) - (04:04)
(04:04) - (04:09)
(04:09) - (04:13)

  * *     * *     * *     * *
e|--------------------------------|
B|--------------------------------|
G|----------------------------5---|
D|----------------------------5---|
A|----5h7-----5h7-----5h7-----3---|
E|0-0-----0-0-----0-0-----0-0-----|

  * *     * *     * *
e|--------------------------------|
B|--------------------------------|
G|--------------------------------|
D|------------------------7-8-9---|
A|----5h7-----5h7-----5h7-7-8-9---|
E|0-0-----0-0-----0-0-----5-6-7---|



Part 3 - Guitar 1
(01:23) - (01:32)
(02:23) - (02:32)
(04:15) - (04:24)

         *             *             *            *
e|-------------------------------------------------|
B|-------------------------------------------------|
G|-------------------------------------------------|
D|--------------5-------------5-------------5------|
A|--------------5-------------5-------------5------|
E|3b1/4--0-------------0-------------0------------0|

         *             *             *            *
e|-------------------------------------------------|
B|-------------------------------------------------|
G|-------------------------------------------------|
D|--------------5-------------5-------------5------|
A|--------------5-------------5-------------5------|
E|3b1/4--0-------------0-------------0------------0|

         *             *             *            *
e|-------------------------------------------------|
B|-------------------------------------------------|
G|-------------------------------------------------|
D|--------------5-------------5-------------5------|
A|--------------5-------------5-------------5------|
E|3b1/4--0-------------0-------------0------------0|

         *             *             *
e|-------------------------------------------------|
B|-------------------------------------------------|
G|-------------------------------------------------|
D|--------------5-------------5-------------5------|
A|--------------5-------------5-------------5------|
E|3b1/4--0-------------0-------------0------------0|



Part 4 - Guitar 1
(01:32) - (01:42)
(01:42) - (01:52)
(02:32) - (02:42)
(02:42) - (02:51)
(04:24) - (04:34)
(04:34) - (04:43)

  * *    * *   * *   * *   * *
e|---------------------------------|
B|---------------------------------|
G|---------------------------------|
D|---------------------------------|
A|----10-----9-----7-----5-----5h7-|
E|0-0----0-0---0-0---0-0---0-0-----|

  * *    * *   * *   * *   * *
e|---------------------------------|
B|---------------------------------|
G|---------------------------------|
D|---------------------------------|
A|----10-----9-----7-----5-----5h7-|
E|0-0----0-0---0-0---0-0---0-0-----|

  * *    * *   * *   * *   * *
e|---------------------------------|
B|---------------------------------|
G|---------------------------------|
D|---------------------------------|
A|----10-----9-----7-----5-----5h7-|
E|0-0----0-0---0-0---0-0---0-0-----|

  * *    * *   * *   * *   * *
e|---------------------------------|
B|---------------------------------|
G|---------------------------------|
D|-----------------------------9-9-|
A|----10-----9-----7-----5-----9-9-|
E|0-0----0-0---0-0---0-0---0-0-7-7-|



Part 5 - Guitar 1
(02:57) - (03:02)
(03:02) - (03:07)
(03:07) - (03:12)
(03:12) - (03:17)
(03:17) - (03:22)
(03:22) - (03:27)
(03:27) - (03:32)
(03:32) - (03:37)
(03:37) - (03:42)
(03:42) - (03:47)

  *   * * * * *   *     *   * * * * *   *
e|--------------------------------------------|
B|--------------------------------------------|
G|------------------9---------------------7---|
D|------------------9---------------------7---|
A|------------------7---------------------5---|
E|0---0-2-3-2-0---0-----0---0-2-3-2-0---0-----|

 *    * * * * *   *     *   * * * * *   *
e|--------------------------------------------|
B|--------------------------------------------|
G|------------------5---------------------7---|
D|------------------5---------------------7---|
A|------------------3---------------------5---|
E|0---0-2-3-2-0---0-----0---0-2-3-2-0---0-----|



Lead 2 - Guitar 2
(03:17) - (03:37)

e|------------------------------------------------------|
B|15----------15----------15----15----15----15----------|
G|14b16-------14b16-------14b16-14b16-14b16-14b16~~~~~--|
D|------------------------------------------------------|
A|------------------------------------------------------|
E|------------------------------------------------------|


e|12--------------------------------------------------|
B|12----------------------------15--------------------|
G|-----14---12--------12---14---14b16r14--------12~~~-|
D|---------------14------------------------14---------|
A|----------------------------------------------------|
E|----------------------------------------------------|


e|15b17-------15b17-------15b17-15b17-15-15~~~~~--15-|
B|---------------------------------------------------|
G|---------------------------------------------------|
D|---------------------------------------------------|
A|---------------------------------------------------|
E|---------------------------------------------------|


e|12-15p12-----------------------------------------------------|
B|---------15-12----12-15p12-----------------------------------|
G|---------------14b---------14-12----12-14p12-----------------|
D|---------------------------------14----------14-12-----------|
A|---------------------------------------------------14-12-----|
E|---------------------------------------------------------15\-|


e|----12-15p12-10----------15p12-10----------15p12-10----------|
B|/15-------------12p10-------------12p10-------------12p10----|
G|----------------------12----------------12----------------12-|
D|-------------------------------------------------------------|
A|-------------------------------------------------------------|
E|-------------------------------------------------------------|


e|15p12-10----------15p12-10-------------------------------|
B|---------12p10-12----------12p10-12-15p12----------------|
G|------------------------------------------14-12----12-14-|
D|------------------------------------------------14-------|
A|---------------------------------------------------------|
E|---------------------------------------------------------|


e|---------------------------12-15p12----14p12----15p12----|
B|------------------------------------12-------12-------12-|
G|14-b16r14-12-14~~~~~-------------------------------------|
D|---------------------------------------------------------|
A|---------------------------------------------------------|
E|---------------------------------------------------------|


e|17p12----15p12----14p12----15p12----17p15----14p12/14-15p14/15-|
B|------12-------12-------12-------12-------12-------------------|
G|---------------------------------------------------------------|
D|---------------------------------------------------------------|
A|---------------------------------------------------------------|
E|---------------------------------------------------------------|


e|17p15/17-19p17/18-20p18/19-22p19-19-22b24----22b24----22b25|
B|-----------------------------------------------------------|
G|-----------------------------------------------------------|
D|-----------------------------------------------------------|
A|-----------------------------------------------------------|
E|-----------------------------------------------------------|

Part 6 - Guitar 1
(03:47) - (03:53)

e|----------------------------------------------------------------|
B|3-------------------------------3-------------------------------|
G|----5-4-5---4-2-4---2-0---0-2-------5-4-5---4-2-4---2-0---0-2---|
D|------------------------4-------------------------------4-------|
A|----------------------------------------------------------------|
E|----------------------------------------------------------------|


e|----------------------------------------------------------------|
B|3---------------------------------------------------------------|
G|----5-4-5---4-2-4---2-0---0-2---7-------------------------------|
D|------------------------4-------7---------------------------7---|
A|--------------------------------5---------------------------7---|
E|------------------------------------------------------------5---|



Lead 3 - Guitar 2
(03:50) - (03:52)

e|--------------------------------------------|
B|--------------------------------------------|
G|14----12-11-12----11----11------------------|
D|---------------------14-------14-12-11-12-14|
A|--------------------------------------------|
E|--------------------------------------------|



Part 7 - Guitar 1
(04:48) - (04:54)
(04:54) - (05:00)
(05:00) - (05:06)
(05:06) - (05:11)
(05:23) - (05:29)
(05:29) - (05:35)
(05:47) - (05:53)
(05:35) - (05:59)

    * * * * * * * * * * * * * * *   * * * * * * * * * * * * * * *
e|----------------------------------------------------------------|
B|----------------------------------------------------------------|
G|--------------------------------7-------------------------------|
D|2-------------------------------7-------------------------------|
A|0-0-0-0-0-0-0-0-0-0-0-0-0-0-0-0-5-0-0-0-0-0-0-0-0-0-0-0-0-0-0-0-|
E|----------------------------------------------------------------|

    * * * * * * * * * * * * * * *   * * * * * * *
e|----------------------------------------------------------------|
B|----------------------------------------------------------------|
G|4-------------------------------5---------------4-----5-----4---|
D|4-------------------------------5---------------4-----5-----4---|
A|2-0-0-0-0-0-0-0-0-0-0-0-0-0-0-0-3-0-0-0-0-0-0-0-2-----3-----2---|
E|----------------------------------------------------------------|



Part 8 - Guitar 1
(05:11) - (05:18)
(05:18) - (05:23)
(05:35) - (05:41)
(05:41) - (05:47)

e|----------------------------------------------------------------|
B|----------------------------------------------------------------|
G|2---2-----------5---2-----------2---2-----------7---5-----------|
D|2---2-----------5---2-----------2---2-----------7---5-----------|
A|0---0-----------3---0-----------0---0-----------5---3-----------|
E|----------------------------------------------------------------|


e|----------------------------------------------------------------|
B|----------------------------------------------------------------|
G|2---2-----------5---2-----------2---2---------------4---5---4---|
D|2---2-----------5---2-----------2---2---------------4---5---4---|
A|0---0-----------3---0-----------0---0---------------2---3---2---|
E|----------------------------------------------------------------|



Part 9 - Guitar 1
(05:59) - (06:21)

e|----------------------------------------------------------------------|
B|----------------------------------------------------------------------|
G|5-------4-------------------------------------------------------------|
D|5-------4-------2-2-2-2-2-2-2-2-2-2-2-2-2-2-2-2-2-2-2-2-2-2-2-2-2-2-2-|
A|3-------2-------2-2-2-2-2-2-2-2-2-2-2-2-2-2-2-2-2-2-2-2-2-2-2-2-2-2-2-|
E|----------------0-0-0-0-0-0-0-0-0-0-0-0-0-0-0-0-0-0-0-0-0-0-0-0-0-0-0-|
  No      Re  -   mo               -               rse

e|----------------------------------------------------------------------|
B|----------------------------------------------------------------------|
G|----------------------------------------------------------------------|
D|----------------------------------------------------------------------|
A|----------------------------------------------------------------------|
E|----------------------------------------------------------------------|

  *   * * * *                *   * * * *
e|----------------------------------------|
B|----------------------------------------|
G|------------7---------------------------|
D|------------7--------------------------2|
A|------------5--------------------------2|
E|0---0-2-3-2----------------0---0-2-3-2-0|



| r     return bend
| b     bend
| b1/4  bend 1/4 of a fret
| /     slide up
| \     slide down
| h     hammer-on
| p     pull-off
| ~     vibrato
| +     pinched harmonic
| x     dead note
| *     palm mute

            
            
Suggest correction
Creating personal tab
Creating personal tab
You can edit any tab online and save it as your Personal.

You can edit, replace or remove any tab part or add personal notes – all changes will be seen only by you.

Personal tabs can be accessed anytime from any device, even offline.
Learn more »
comments
print report bad tab
10 comments total. Showing first comments.
+2 reply
metalfreak_6666 10 Sep 06, 2008 12:10 PM

this tab is pretty good

+1 reply
bigbucksgrimes 199 Oct 07, 2008 12:21 PM

thanks metalfreak_6666, please rate.

+5 reply
frantic_saint 10 Jan 12, 2009 03:20 PM

dave didnt record on the album it was all kirk

guest
You may want to rate the tab now too:
select rating
Wanna post a correction for this tab? Suggest correction