Oops, an error
Loading. Please wait.
We have an official Nothing Else Matters tab made by UG professional guitarists. Check out the tab »
×

Nothing Else Matters bass

version 4
version 4

Whole song

  • Based on the bass master track: https://www.youtube.com/watch?v=9sj68q7Reyk.
  • Alternative Version with Bass basically replacing Lead Guitar.
301 views 6 this week
no commentswrite comment
1 2 3 4 5
x 4
add to favorites
×
Save as Personal and add changes to this tab that will be seen only by you. Learn more ›
×
You can save this tab as Personal to edit and correct it or add notes. All changes will be seen only by you. Learn more »
launch autoscroll
font size
0
reset
guitar tuner
backing track
0:00
0:00
edit
Autoscroll
slow
fast
+/-
esc
set tempo
stop
About this tab version
Alternative Version with Bass basically replacing Lead Guitar. Was this info helpful? Yes No
[Intro]
G|------16-----------16----|------16-----------16----|
D|---14----14-----14----14-|---14----14-----14----14-|
A|-------------------------|-------------------------|
E|-0------------0----------|-0------------0----------|

G|-16-16----16------|-16-17-16h17p16-14-16-14h16p14----|-----------------|
D|-------14----14---|-------------------------------14-|-14-14h16p14--14-|
A|------------------|----------------------------------|-0------------0~-|
E|----------------0-|----------------------------------|-----------------|

G|----------------------|-----------------------|-------16-----------16----|-------16-----------16----|
D|-14--16--17--17-19-17-|-17-19--19-17-19-17h19-|-14-14----14-----14----14-|----14----14-----14----14-|
A|-0---14--15--15-------|-15-17--17-------------|--------------------------|--------------------------|
E|----------------------|-----------------------|-0-------------0----------|-0-------------0----------|

G|----16---14-14--12-12-|----16---14-14--12-12-|----16---14-14--12-12-|-7-7--11-11----|
D|----14---12-12--10-10-|----14---12-12--10-10-|----14---12-12--10-10-|-5-5--9--9-----|
A|----12---10-10--8--8--|----12---10-10--8--8--|----12---10-10--8--8--|-3-3--7--7-----|
E|-0--------------------|-0--------------------|-0--------------------|------------0~-|

[Verse 1]
G|------------------|
D|------------------| (x2)
A|----7--5----------|
E|-0--------8/--3-2-|

G|-------------|----------------|-----------------------|
D|-------------|----------------|-----------------------|
A|----7--5-----|------2-----7-7-|------------7--7-7-----|
E|-0--------8/-|-3-3-----0------|-0-0--0-0-0--------3-2-|

G|-----------------|
D|-----------------| (x2)
A|----7--5---------|
E|-0-------8/--3-2-|

G|-------------|----------------|-----------------------|
D|-------------|----------------|-----------------------|
A|----7--5-----|------2-----7-7-|------------7--7-7-----|
E|-0--------8/-|-3-3-----0------|-0-0--0-0-0--------3-2-|

G|------------------|
D|------------------| (x2)
A|----7--5----------|
E|-0--------8/--3-2-|

G|--------------------------|
D|--------------------------|
A|----7--5-----------2----7-|
E|-0--------8/--3-3-----0---|

[Chorus]
G|-------------------|
D|-------7-7-7-7-7-7-| (x2)
A|-------5-5-5-5-5-5-|
E|-8--5--------------|

G|--------------------------|
D|-------7-7-7--------------|
A|-------5-5-5-7---7--------|
E|-8--5--------0------0-3-2-|

[Verse 2]
G|------------------|
D|------------------| (x2)
A|----7--5----------|
E|-0--------8/--3-2-|

G|--------------------------|
D|--------------------------|
A|----7--5-----------2----7-|
E|-0--------8/--3-3-----0---|

[Chorus]
G|-------------------|
D|-------7-7-7-7-7-7-| (x2)
A|-------5-5-5-5-5-5-|
E|-8--5--------------|

G|-----------------------------|
D|-------7-7-------------------|
A|-------5-5-5h7-7---7---------|
E|-8--5------0---0------0--3-2-|

[Interlude]
G|----------------------------|-------------------------|-----------------------------------|
D|----------------------------|---7---7-------7---7-----|---10------10-------12-------12----|
A|---7-7----7-7----7-7----7-7-|-----7---7-------7---7---|------10------10-------12-------12-|
E|-0------0------0------0-----|-5---------5-5---------5-|-8-------8-------10-------10-------|

G|-----------------------------------------|------------------------------|
D|--------------14----------14----14-------|------------------------------|
A|-----------------14----------14----14----|------------------------------|
E|-12-12--12-12-------12-12-------------12-|-12--12-14--14-15--15-17--17\-|

G|-------------------------|-----------------------------------|--------------------16-16----------12-|
D|---7---7-------7---7-----|---10------10-------12-------12----|----------14--------------14-12-14----|
A|-----7---7-------7---7---|------10------10-------12-------12-|--------------------------------------|
E|-5---------5-5---------5-|-8-------8-------10-------10-------|-0-0--0-0----0-0--0-------------------|

[Verse 3]
G|------------------|
D|-14---------------| (x2)
A|----7--5----------|
E|-0--------8/--3-2-|

G|-------------|----------------|-----------------------|
D|-------------|----------------|-----------------------|
A|----7--5-----|------2-----7-7-|------------7--7-7-----|
E|-0--------8/-|-3-3-----0------|-0-0--0-0-0--------3-2-|

G|------------------|
D|------------------| (x2)
A|----7--5----------|
E|-0--------8/--3-2-|

G|--------------------------|
D|--------------------------|
A|----7--5-----------2----7-|
E|-0--------8/--3-3-----0---|

[Chorus]
G|-------------------|
D|-------7-7-7-7-7-7-| (x4)
A|-------5-5-5-5-5-5-|
E|-8--5--------------|

G|------------------------------|
D|-------7-7--------------------|
A|-------5-5-5h7-7---7--7-7-7-7-|
E|-8--5------0---0---0--0-0-0-0-|

[Solo]
G|-16b--16-14-12--|-14-12-11h12p11-----------------|
D|----------------|------------------12-h14-12-h14-|
A|----------------|--------------------------------|
E|----------------|--------------------------------|

G|-12-14-12--/16-19-16-19-16-|-h19p16h19p16-14--14-14-16-14-12-|
D|---------------------------|---------------------------------|
A|---------------------------|---------------------------------|
E|---------------------------|---------------------------------|

G|-----12-11---12-11-14-9-11-9h11p9-|------------------------------------|
D|-----------9----------------------|-9--5-7-5-/9-9-12-12-14-12-14-12h14~|
A|----------------------------------|------------------------------------|
E|-0-0------------------------------|------------------------------------|

G|--------------|----------|
D|-14-12-9h12p9-|----------|
A|--------------|-9-7h9p7--|
E|--------------|----------|

[Outro]
G|-16-16----16------|-16-17-16h17p16-14-16-14h16p14----|-------------------|
D|-------14----14---|-------------------------------14-|-14-14h16p14--14---| (repeat until faded out)
A|------------------|----------------------------------|-------------------|
E|----------------0-|----------------------------------|--------------0---0|


************************************

| h   Hammer-on
| p   Pull-off
| /   Slide up
| \   Slide down
| ~   Vibrato

************************************

            
            
Suggest correction
Creating personal tab
Creating personal tab
You can edit any tab online and save it as your Personal.

You can edit, replace or remove any tab part or add personal notes – all changes will be seen only by you.

Personal tabs can be accessed anytime from any device, even offline.
Learn more »
comments
print report bad tab
guest
You may want to rate the tab now too:
select rating
Wanna post a correction for this tab? Suggest correction