Oops, an error
Loading. Please wait.
We have an official Nothing Else Matters tab made by UG professional guitarists. Check out the tab »
×
21,914 views 39 this week
3 commentsread comments
1 2 3 4 5
x 29
add to favorites
×
Save as Personal and add changes to this tab that will be seen only by you. Learn more ›
×
You can save this tab as Personal to edit and correct it or add notes. All changes will be seen only by you. Learn more »
launch autoscroll
font size
0
reset
how to read this tab
guitar tuner
backing track
0:00
0:00
edit
Autoscroll
slow
fast
+/-
esc
set tempo
stop
-------------------------------------------------------------------------------
                         Nothing Else Matters - Metallica
-------------------------------------------------------------------------------
Tabbed by: Mats Cornelissen
E-mail: matshoi@hotmail.com

Tuning: Standard

[Intro]

e|-|------0------|------------0---7-7-----7p0------------7-8-7h8/5-5-7-5/2-0------------------|
B|-|----0---0----|----------0---0-------0-----0--------0--------------------------------------|
G|-|--0-------0--|--------0-----------0---------0----0----------------------------------------|
D|-|-------------|-(3x)-----------------------------------------------------------------------|
A|-|-------------|----------------------------------------------------------------------------|
E|-|0------------|------0-----------0--------------0------------------------------------------|

e|-------2p0-----------0----------------3p0-----------------0h5p0-----------------------------|
B|-5---5-----5-------5---5-5-5------5-------5---5-7-----7---------7p0h5-----------------------|
G|---5---------5---5--------------5---5-------5-------7---7-----------------------------------|
D|--------------------------------------------------------------------------------------------|
A|-0-------------0-------0-2-3--3---------------3-5-5-----------------------------------------|
E|--------------------------------------------------------------------------------------------|


[Fill]

e|-----------12+------|-------0-----|------|--------7---------------|-------------------------|
B|-------12+-----0----|-----0---0---|------|--------8-----7------5--|-------------------------|
G|---12+-----------0--|---0-------0-|------|------9-------7------5--|-------------------------|
D|--------------------|-------------|-(3X)-|----9-------7------5----|-(2X)--------------------|
A|--------------------|-------------|------|--7-------5------3------|-------------------------|
E|-0------------------|-0-----------|------|0-----------------------|-------------------------|

e|---------7----------------------------------|-----------------------------------------------|
B|---------8---5-------5-------3-------4------|-----------------------------------------------|
G|-------9-------5-------5-------4-------4----|-----------------------------------------------|
D|-----9-----------5-------5-------5-------4--|-----------------------------------------------|
A|---7-------7-------3---------------2--------|-----------------------------------------------|
E|-0-------------------------3----------------|-----------------------------------------------|


[Verse] (3X)

e|-------0-----|----------3---0-----2-3-----0-----------------3---0-----2---------------------|
B|-----0---0---|--------0-------0-------3-----2-------------0-------0-------3-----3-----3-----|
G|---0-------0-|------0-----0-----0-------0-----0---------0-----0-----0-------2p0-----0-------|
D|-------------|-(2X)---------------0------------------------------------0-0------------------|
A|-------------|----------------------------3---------------------3---------------------------|
E|-0-----------|-----------------------------------3-2-0----------------------------------3-2-|

e|-------3---0-----2-3-----0----------------3-2-----2-----------------------------------------|
B|-----0-------0-------3-----2----3-------0-3-0-------0---------------------------------------|
G|---0-----0-----0-------0-----0----3---------2-----------------------------------------------|
D|-----------------0------------------0-------------------------------------------------------|
A|-------------------------3------3-----------2--2--------------------------------------------|
E|-0------------------------------------3-----------------------------------------------------|


[Chorus]

e|-------0----|-0--0-3--3-33333-|------0-0--3333--0-------------------------------------------|
B|-----0---0--|-1--2-2--2-22222-|------1-2--2222--0-------------------------------------------|
G|---0-------0|-0--2-3--3-33333-|-(2X)-0-2--3333--0-------------------------------------------|
D|------------|-2--2-0--0-00000-|------2-2--0000--2-(Hold 4 sec)------------------------------|
A|------------|-3--0------------|------3-0--------2-------------------------------------------|
E|-0----------|-----------------|-----------------0-------------------------------------------|
                U U U   U UDUDD        U U  UUDU  D

[Verse] (1X)

e|----------3---0-----2-3-----0-----------------3---0-----2---------------------|
B|--------0-------0-------3-----2-------------0-------0-------3-----3-----3-----|
G|------0-----0-----0-------0-----0---------0-----0-----0-------2p0-----0-------|
D|--------------------0------------------------------------0-0------------------|
A|----------------------------3---------------------3---------------------------|
E|-----------------------------------3-2-0----------------------------------3-2-|

e|-------3---0-----2-3-----0----------------3-2-----2-----------------------------------------|
B|-----0-------0-------3-----2----3-------0-3-0-------0---------------------------------------|
G|---0-----0-----0-------0-----0----3---------2-----------------------------------------------|
D|-----------------0------------------0-------------------------------------------------------|
A|-------------------------3------3-----------2--2--------------------------------------------|
E|-0------------------------------------3-----------------------------------------------------|


[Chorus]

e|-------0----|-0--0-3--3-33333-|------0-0--3333--0-------------------------------------------|
B|-----0---0--|-1--2-2--2-22222-|------1-2--2222--0-------------------------------------------|
G|---0-------0|-0--2-3--3-33333-|-(2X)-0-2--3333--0-------------------------------------------|
D|------------|-2--2-0--0-00000-|------2-2--0000--2-(Hold 4 sec)------------------------------|
A|------------|-3--0------------|------3-0--------2-------------------------------------------|
E|-0----------|-----------------|-----------------0-------------------------------------------|
                U U U   U UDUDD        U U  UUDU  D

[Bridge]

e|-------0------------------------------------------------------------------------------------|
B|-----0---0----------------------------------------------------------------------------------|
G|---0-------0--------------------------------------------------------------------------------|
D|-------------------------------------------5-----5-5-------5-----0---------2----------------|
A|--------------12-12-12-12-12-12-12-12----5-----5-----5---5-----1-----1---3-----3------------|
E|-0------------12----14----15----17-----8-----8---------8-----0-----0---0-----0--------------|

e|-----------------------0--------------------------------------------------------------------|
B|---------------------0----------------------------------------------------------------------|
G|-------------------0------------------------------------------------------------------------|
D|-------0-------0------------------------------------5-----5-5-------5-----0-----------------|
A|-----0-------0----------12-12-12-12-12-12-12-12---5-----5-----5---5-----1-----0-------------|
E|-0-7-----7-0-----0------12----14----15----17----8-----8---------8-----0-----1---------------|

e|--------------------------------------------------------------------------------------------|
B|-------------------------12--12----15-15b-15brb---------------------------------------------|
G|-12-12h14-12h14-14brb-12-----------14-14b-14brb----------12---------------------------------|
D|--------------------------------14--------------14-12-14------------------------------------|
A|--------------------------------------------------------------------------------------------|
E|--------------------------------------------------------------------------------------------|


[Verse]

e|----------3---0-----2-3-----0-----------------3---0-----2---------------------|
B|--------0-------0-------3-----2-------------0-------0-------3-----3-----3-----|
G|------0-----0-----0-------0-----0---------0-----0-----0-------2p0-----0-------|
D|--------------------0------------------------------------0-0------------------|
A|----------------------------3---------------------3---------------------------|
E|-----------------------------------3-2-0----------------------------------3-2-|

e|-------3---0-----2-3-----0----------------3-2-----2-----------------------------------------|
B|-----0-------0-------3-----2----3-------0-3-0-------0---------------------------------------|
G|---0-----0-----0-------0-----0----3---------2-----------------------------------------------|
D|-----------------0------------------0-------------------------------------------------------|
A|-------------------------3------3-----------2--2--------------------------------------------|
E|-0------------------------------------3-----------------------------------------------------|

e|-------0-----|----------3---0-----2-3-----0-----------------3---0-----2---------------------|
B|-----0---0---|--------0-------0-------3-----2-------------0-------0-------3-----3-----3-----|
G|---0-------0-|------0-----0-----0-------0-----0---------0-----0-----0-------2p0-----0-------|
D|-------------|-(2X)---------------0------------------------------------0-0------------------|
A|-------------|----------------------------3---------------------3---------------------------|
E|-0-----------|-----------------------------------3-2-0----------------------------------3-2-|

e|-------3---0-----2-3-----0----------------3-2-----2-----------------------------------------|
B|-----0-------0-------3-----2----3-------0-3-0-------0---------------------------------------|
G|---0-----0-----0-------0-----0----3---------2-----------------------------------------------|
D|-----------------0------------------0-------------------------------------------------------|
A|-------------------------3------3-----------2--2--------------------------------------------|
E|-0------------------------------------3-----------------------------------------------------|


[Chorus]

e|-------0----|-0--0-3--3-33333-|------0-0--3333--0-------------------------------------------|
B|-----0---0--|-1--2-2--2-22222-|------1-2--2222--0-------------------------------------------|
G|---0-------0|-0--2-3--3-33333-|-(4X)-0-2--3333--0-------------------------------------------|
D|------------|-2--2-0--0-00000-|------2-2--0000--2-(Hold 4 sec)------------------------------|
A|------------|-3--0------------|------3-0--------2-------------------------------------------|
E|-0----------|-----------------|-----------------0-------------------------------------------|
                U U U   U UDUDD        U U  UUDU  D


[Solo]

e|----------------------------------------------------|--------12-|-----------------------------|
B|----------------------------------------------------|-----12----|-(2X)15p12----12-------------|
G|-14fb-14fbrb-12-14-12-11h12p11----11-------12-14-12-|14fb-------|-----------15----15-14-12fbrb|
D|-------------------------------14----12-14----------------------------------------------------|
A|----------------------------------------------------------------------------------------------|
E|----------------------------------------------------------------------------------------------|

e|------------------15-14----15-14-15-17-17-15-14h15p14/12----15-14---------------------------|
B|----14-14---------------12-------------------------------12-------12------------------------|
G|----14-14-13-12------------------------------------------------------12-14-12-14fbrb-12-----|
D|-14-------------------------------------------------------------------------------------14--|
A|--------------------------------------------------------------------------------------------|
E|--------------------------------------------------------------------------------------------|

e|-----------12-------------------------------------------------------------------------------|
B|--------12----15-15fbrb-12-15fb-15fb(4sec)-15-12-15-12(2sec)-7-5-7-5(2sec)------------------|
G|-12-14fb------------------------------------------------------------------------------------|
D|--------------------------------------------------------------------------------------------|
A|--------------------------------------------------------------------------------------------|
E|--------------------------------------------------------------------------------------------|


[Verse]

e|----------3---0-----2-3-----0-----------------3---0-----2---------------------|
B|--------0-------0-------3-----2-------------0-------0-------3-----3-----3-----|
G|------0-----0-----0-------0-----0---------0-----0-----0-------2p0-----0-------|
D|--------------------0------------------------------------0-0------------------|
A|----------------------------3---------------------3---------------------------|
E|-----------------------------------3-2-0----------------------------------3-2-|

e|-------3---0-----2-3-----0----------------3-2-----2-----------------------------------------|
B|-----0-------0-------3-----2----3-------0-3-0-------0---------------------------------------|
G|---0-----0-----0-------0-----0----3---------2-----------------------------------------------|
D|-----------------0------------------0-------------------------------------------------------|
A|-------------------------3------3-----------2--2--------------------------------------------|
E|-0------------------------------------3-----------------------------------------------------|

e|-------0-----|----------3---0-----2-3-----0-----------------3---0-----2---------------------|
B|-----0---0---|--------0-------0-------3-----2-------------0-------0-------3-----3-----3-----|
G|---0-------0-|------0-----0-----0-------0-----0---------0-----0-----0-------2p0-----0-------|
D|-------------|-(2X)---------------0------------------------------------0-0------------------|
A|-------------|----------------------------3---------------------3---------------------------|
E|-0-----------|-----------------------------------3-2-0----------------------------------3-2-|

e|-------3---0-----2-3-----0----------------3-2--2--------------------------------------------|
B|-----0-------0-------3-----2----3-------0-3-0--0--------------------------------------------|
G|---0-----0-----0-------0-----0----3---------2--2--------------------------------------------|
D|-----------------0------------------0-------------------------------------------------------|
A|-------------------------3------3-----------2--2--------------------------------------------|
E|-0------------------------------------3-----------------------------------------------------|


[Outro]

e|-|------0--------------0---7-7-----7p0------------7-8-7h8/5-5-7-5/2-0----------------------|
B|-|----0---0----------0---0-------0-----0--------0------------------------------------------|
G|-|--0-------0------0-----------0---------0----0--------------------------------------------|
D|-|-----------------------------------------------------------------------------------------| 5X
A|-|-----------------------------------------------------------------------------------------|
E|-|0--------------0-----------0--------------0----------------------------------------------|

e|-|------0-----------0---7------------------------------------------------------------------|
B|-|----0---0-------0---0--------------------------------------------------------------------|
G|-|--0-------0---0--------------------------------------------------------------------------|
D|-|-----------------------------------------------------------------------------------------|
A|-|-----------------------------------------------------------------------------------------|
E|-|0-----------0----------------------------------------------------------------------------|



************************************

| h  Hammer-on
| p  Pull-off
| b  Bend
| /  Slide up

************************************

            
            
Suggest correction
Creating personal tab
Creating personal tab
You can edit any tab online and save it as your Personal.

You can edit, replace or remove any tab part or add personal notes – all changes will be seen only by you.

Personal tabs can be accessed anytime from any device, even offline.
Learn more »
comments
print report bad tab
3 comments total. show 1 bad comment
0 reply
Sumlover41 52 Aug 12, 2015 12:48 PM, edited at 04:48 pm

Doublepost

+1 reply
lilmiller7903 10 Aug 17, 2017 08:38 PM

lscks information whats f mean!!!???

guest
You may want to rate the tab now too:
select rating
Wanna post a correction for this tab? Suggest correction