Oops, an error
Loading. Please wait.
We have an official Nothing Else Matters tab made by UG professional guitarists. Check out the tab »
×

Nothing Else Matters solo tab

156,633 views 39 this week
20 commentsread comments
1 2 3 4 5
x 19
add to favorites
×
Save as Personal and add changes to this tab that will be seen only by you. Learn more ›
×
You can save this tab as Personal to edit and correct it or add notes. All changes will be seen only by you. Learn more »
launch autoscroll
font size
0
reset
how to read this tab
guitar tuner
backing track
0:00
0:00
edit
Autoscroll
slow
fast
+/-
esc
set tempo
stop
[Solo]

e|---------------------------------------------------|
B|-15-----15-----------------------------------------|
G|-14^16--14^16-12-14-12-11h12p11--11-----12-14-12---|
D|-------------------------------12--12/14-----------|
A|---------------------------------------------------|
E|---------------------------------------------------|

e|------12-----12------------------------------------|
B|-----12-----12--15-12-15-14-12----14-14-13---------|
G|-14^16--14^16------------------14-14-14-13-12------|
D|---------------------------------------------------|
A|---------------------------------------------------|
E|---------------------------------------------------|

                      
e|-15-14---15-14-15/17-15h17p15---15-14-------------------|
B|------12---------------------12-------12----------------|
G|-----------------------------------------12-14-12-14^16-|
D|--------------------------------------------------------|
A|--------------------------------------------------------|
E|--------------------------------------------------------|

e|-------------12-----------------------------------------|
B|-----------12--12h15p12--15^17*--12h15p12-12\7-5h7p5----|
G|-----14^16----------------------------------------------|
D|---12---------------------------------------------------|
A|-12-----------------------------------------------------|
E|--------------------------------------------------------|  


************************************

| /  slide
| ^  bend
| ~  vibrato
| p  pull
| h  hammer
| t  trill
| FT fret tap
| *  hold bend

************************************

            
            
Suggest correction
Creating personal tab
Creating personal tab
You can edit any tab online and save it as your Personal.

You can edit, replace or remove any tab part or add personal notes – all changes will be seen only by you.

Personal tabs can be accessed anytime from any device, even offline.
Learn more »
comments
print report bad tab
20 comments total. Showing first comments.
0 reply
sean_nothin 0 Oct 22, 2002 08:00 PM

this tab IS crap, I dont care what your 'lil book says, if you do know how to play,you would know ...this isnt right

0 reply
sean_nothin 0 Oct 22, 2002 08:00 PM

when the solo starts ,,try this... -----------------
---12--12--------
---14^-14^(14)12- this is the first two notes of the solo... obviously

0 reply
rollingaerofan 85 Jun 20, 2003 08:00 PM

id just like to say i have the book, and
this isn't from it. i will tab it out
now and see if its accepted

guest
You may want to rate the tab now too:
select rating
Wanna post a correction for this tab? Suggest correction