Oops, an error
Loading. Please wait.
We have an official Of Wolf And Man tab made by UG professional guitarists. Check out the tab »
×
12,716 views 3 this week
1 commentread comment
1 2 3 4 5
x 4
add to favorites
×
Save as Personal and add changes to this tab that will be seen only by you. Learn more ›
×
You can save this tab as Personal to edit and correct it or add notes. All changes will be seen only by you. Learn more »
launch autoscroll
font size
0
reset
guitar tuner
backing track
0:00
0:00
edit
Autoscroll
slow
fast
+/-
esc
set tempo
stop
I had noticed that there weren't any very good tabs around for this song, and I 
really like this song, probably my favorite on the album, so I decided to make a tab.

Gtr I (E A D G) - 'Untitled'


 4/4
  Gtr I
  W          q  q  q  q    q  q  q  q    q  q  q  q
|----------|-------------|-------------|--------------|
|----------|-------------|-------------|--------------|
|----------|-------------|-------------|--------------|
|----------|-0--0--0--0--|-0--0--0--0--|-0--0--0--0---|


  q  q  q  q    q  q  q  q   W   +W    +W    +W    W   +W    +W    +W
|-------------|------------|---|-----|-----|-----|---|-----|-----|-----|---|
|-------------|------------|---|-----|-----|-----|---|-----|-----|-----|---|
|-------------|------------|---|-----|-----|-----|---|-----|-----|-----|---|
|-0--0--0--0--|-0--0--0--0-|-0-|-(0)-|-(0)-|-(0)-|-0-|-(0)-|-(0)-|-(0)-|---|


  5/4         4/4
   q  H    H      H    H   H    H   H    H
||-----------|-||--------|--------|--------|----|
||-----------|-||--------|--------|--------|----|
||-----------|-||--------|--------|--------|----|
||-0--0----0-|-||-0----0-|-0----0-|-0----0-|----|


  5/4         4/4
   q  H    H      H    H   H    H   Q  Q  Q  Q
||-----------|-||--------|--------|-------------|---|
||-----------|-||--------|--------|-------------|---|
||-----------|-||--------|--------|-------------|---|
||-0--0----0-|-||-0----0-|-0----0-|-0--0--0--0--|---|


    E S S E E E E E E   +E  S S S S S S Q  Q
||--------------------|-----------------------|
||o-------------------|-----0-0-2-2-0-0-2--2--|
||o-------------2---1-|-(1)-------------------|
||--0-0-0-1-0-0---0---|-----------------------|


  E S S E E E E E E   +E  S S S S S S Q  Q   3x
|-------------------|------------------------||
|-------------------|-----0-0-2-2-0-0-2--2--o||
|-------------2---1-|-(1)-------------------o||
|-0-0-0-1-0-0---0---|------------------------||


  q  q  q  q   E E E E +E  E E E   E E E E E E E E   E E E E +E  E E E
|------------|-------------------|-----------------|--------------------|
|------------|-------------------|-----------------|--------------------|
|------------|---2---1-(1)-1-1-1-|-1-1-1-1---------|---2---1-(1)-1-1-1--|
|-0--0--0--0-|-0---0-------------|---------0-0-1-0-|-0---0--------------|


  E E E E E E E E   E E E E +E  E E E   E E E E E E E E   E E E E +E  E E E
|-----------------|-------------------|-----------------|-------------------|
|-----------------|-------------------|-----------------|-------------------|
|-1-1-1-1---------|---4---3-(3)-3-3-3-|-3-3-3-3---------|---4---3-(3)-3-3-3-|
|---------2-2-3-2-|-2---2-------------|---------2-2-3-2-|-2---2-------------|


  6/4                           4/4
   E E E E E S S E E E S S E E      q  q  q   E.S     E S S E E E E E E
||-----------------------------|-||---------------||--------------------|
||-----------------------------|-||---------------||o-------------------|
||-3-3-3-3---------------------|-||---------------||o-------------2---1-|
||---------2-2-2-3-2-2-2-2-3-2-|-||-0--0--0--12s0-||--0-0-0-1-0-0---0---|


  E S S S S S S Q  Q    E S S E E E E E E   +E  S S S S S S Q  Q     3x
|---------------------|-------------------|--------------------------||
|---0-0-2-2-0-0-2--2--|-------------------|-----0-0-2-2-0-0-2--2----o||
|-1-------------------|-------------2---1-|-(1)---------------------o||
|---------------------|-0-0-0-1-0-0---0---|--------------------------||


  q  q  q  q    E E E E +E  E E E   E E E E E E E E   E E E E +E  E E E
|-------------|-------------------|-----------------|-------------------|
|-------------|-------------------|-----------------|-------------------|
|-------------|---2---1-(1)-1-1-1-|-1-1-1-1---------|---2---1-(1)-1-1-1-|
|-0--0--0--0--|-0---0-------------|---------0-0-1-0-|-0---0-------------|


  E E E E E E E E   E E E E +E  E E E   E E E E E E E E   E E E E +E  E E E
|-----------------|-------------------|-----------------|-------------------|
|-----------------|-------------------|-----------------|-------------------|
|-1-1-1-1---------|---4---3-(3)-3-3-3-|-3-3-3-3---------|---4---3-(3)-3-3-3-|
|---------2-2-3-2-|-2---2-------------|---------2-2-3-2-|-2---2-------------|


  6/4                           4/4
   E E E E E S S E E E S S E E      q  q  q   E.S     E S S E E E S S E E
||-----------------------------|-||---------------||------------------------|
||-----------------------------|-||---------------||o-----------------------|
||-3-3-3-3---------------------|-||---------------||o-----------------2-1---|
||---------2-2-2-3-2-2-2-2-3-2-|-||-0--0--0--12s0-||--0-0-0-1-0-0-0-0-------|


  E S S E E E S S E E     W   +W
|----------------------||---|-----|
|---------------------o||---|-----|
|-----------------2-1-o||---|-----|
|-0-0-0-1-0-0-0-0------||-0-|-(0)-|


  E S S E E E S S E S S   E S S E E  E S S E S S
|-----------------------|------------------------|
|-----------------------|------------------------|
|-----------------------|------------------------|
|-0-0-0-1-0-0-0-0-0-0-0-|-0-0-0-1-0--0-0-0-0-0-0-|


                                          |-3-|
  E S S E E E S S E S S   E Q.   E Q.     E E E E E E S S E S S
|-----------------------|---------------|--------------------------|
|-----------------------|---------------|--------------------------|
|-----------------------|---------------|--------------------------|
|-0-0-0-1-0-0-0-0-0-0-0-|-3-3----2-2----|-0-0-0-1-0-0-0-0-0-0-0----|


  E S S E E E S S E S S   E S S E E E S S E S S   E Q.   E Q.
|-----------------------|-----------------------|----------------|
|-----------------------|-----------------------|----------------|
|-----------------------|-----------------------|----------------|
|-0-0-0-1-0-0-0-0-0-0-0-|-0-0-0-1-0-0-0-0-0-0-0-|-3-3----2-2-----|


  |-3-|
  E E E E E E E E E   +H.      E E   W          Q  Q  Q  Q
|-------------------|--------------|----------|------------|
|-------------------|--------------|----------|------------|
|-------------2---1-|-(1)------4---|-3--------|-3--4--5--6-|
|-0-0-0-1-0-0---0---|------------2-|----------|------------|


  E S S E E E E E E   +E  S S S S S S Q  Q
|-------------------|-----------------------|
|-------------------|-----0-0-2-2-0-0-2--2--|
|-------------2---1-|-(1)-------------------|
|-0-0-0-1-0-0---0---|-----------------------|


  E S S E E E E E E   +E  S S S S S S Q  Q
|-------------------|------------------------|
|-------------------|-----0-0-2-2-0-0-2--2---|
|-------------2---1-|-(1)--------------------|
|-0-0-0-1-0-0---0---|------------------------|


  Q  E E S S E +Q    W   +W    +W    +W    +W    +W    +W    +W
|------------------|---|-----|-----|-----|-----|-----|-----|-----|----|
|-2----------------|---|-----|-----|-----|-----|-----|-----|-----|----|
|------------------|---|-----|-----|-----|-----|-----|-----|-----|----|
|----3-2-3-3-2-(2)-|-0-|-(0)-|-(0)-|-(0)-|-(0)-|-(0)-|-(0)-|-(0)-|----|


  5/4            4/4
   q  H    H         H    H      H    H      H    H
||--------------|-||-----------|-----------|-----------|
||--------------|-||-----------|-----------|-----------|
||--------------|-||-----------|-----------|-----------|
||-0--0----0----|-||-0----0----|-0----0----|-0----0----|


  E S S E E E S S E E   E S S E E E S S E E
|---------------------|---------------------|
|---------------------|---------------------|
|-----------------4-3-|-----------------4-3-|
|-0-0-0-2-1-0-0-0-----|-0-0-0-2-1-0-0-0-----|


  E S S E E E S S E E   E S S E E E S S E E
|---------------------|----------------------|
|---------------------|----------------------|
|-----------------4-3-|-----------------4-3--|
|-0-0-0-2-1-0-0-0-----|-0-0-0-2-1-0-0-0------|


  Q  Q  Q  Q    Q  Q  Q   E.S   E E E E +E  E E E
|-------------|---------------|-------------------|
|-------------|---------------|-------------------|
|-3--4--5--6--|-7--8--9--10s0-|---2---1-(1)-1-1-1-|
|-------------|---------------|-0---0-------------|


  E E E E E E E E   E E E E +E  E E E
|-----------------|-------------------|
|-----------------|-------------------|
|-1-1-1-1---------|---2---1-(1)-1-1-1-|
|---------0-0-1-0-|-0---0-------------|


  E E E E E E E E   E E E E +E  E E E   E E E E E E E E   E E E E +E  E E E
|-----------------|-------------------|-----------------|-------------------|
|-----------------|-------------------|-----------------|-------------------|
|-1-1-1-1---------|---4---3-(3)-3-3-3-|-3-3-3-3---------|---4---3-(3)-3-3-3-|
|---------2-2-3-2-|-2---2-------------|---------2-2-3-2-|-2---2-------------|


  6/4                           4/4
   E E E E E S S E E E S S E E      E E E E H      +H.     E E
||-----------------------------|-||--------------|-------------|
||-----------------------------|-||--------------|-------------|
||-3-3-3-3---------------------|-||---2---1-1----|-(1)-----4---|
||---------2-2-2-3-2-2-2-2-3-2-|-||-0---0--------|-----------2-|


  W          Q  Q  Q  Q  E   E S S E E E E E E
|----------|---------------|-------------------|
|----------|---------------|-------------------|
|-3--------|-3--4--5--6----|-------------2---1-|
|----------|-------------0-|-0-0-0-1-0-0---0---|


  +E  S S S S S S Q  Q    E S S E E E E E E
|-----------------------|-------------------|
|-----0-0-2-2-0-0-2--2--|-------------------|
|-(1)-------------------|-------------2---1-|
|-----------------------|-0-0-0-1-0-0---0---|


  E S S S S S S Q  Q    Q  E E S S E +Q    q  q  q  q
|---------------------|------------------|---------------|
|---0-0-2-2-0-0-2--2--|-2----------------|---------------|
|-1-------------------|------------------|---------------|
|---------------------|----3-2-3-3-2-(2)-|-0--0--0--0----|


--------------------------------------------------------------------------------


Duration Legend
---------------
W - whole; H - half; Q - quarter; E - 8th; S - 16th; T - 32nd; X - 64th; a - acciaccatura
+ - note tied to previous; . - note dotted; .. - note double dotted
Uncapitalized letters represent notes that are staccato (1/2 duration)
Irregular groupings are notated above the duration line
Duration letters will always appear directly above the note/fret number it represents the
duration for.  Duration letters with no fret number below them represent rests.  Multi-
bar rests are notated in the form Wxn, where n is the number of bars to rest for.  Low
melody durations appear below the staff

Tablature Legend
----------------
 h   - hammer-on
 p   - pull-off
 b   - bend
 pb  - pre-bend
 r   - bend release (if no number after the r, then release immediately)
 /\  - slide into or out of (from/to "nowhere")
 s   - legato slide
 S   - shift slide
 - natural harmonic
[n]  - artificial harmonic
n(n) - tapped harmonic
 ~   - vibrato
 tr  - trill
 T   - tap
 TP  - trem. picking
 PM  - palm muting
\n/  - tremolo bar dip; n = amount to dip
 \n  - tremolo bar down
 n/  - tremolo bar up
/n\  - tremolo bar inverted dip
 =   - hold bend; also acts as connecting device for hammers/pulls
 <> - volume swell (louder/softer)
 x   - on rhythm slash represents muted slash
 o   - on rhythm slash represents single note slash

Misc Legend
-----------
 |  - bar
||  - double bar
||o - repeat start
o|| - repeat end
*|  - double bar (ending)
 :  - bar (freetime)
 $  - Segno
 &  - Coda
Tempo markers -  = BPM(8/16=s8/s16), where s8 = swing 8ths, s16 = swing 16ths


!@#$%^&*&^%$#@!@#$%^&*Please comment and rate!!!*&^%$#@!@#$%^&*&^%$#@!

            
            
Suggest correction
Creating personal tab
Creating personal tab
You can edit any tab online and save it as your Personal.

You can edit, replace or remove any tab part or add personal notes – all changes will be seen only by you.

Personal tabs can be accessed anytime from any device, even offline.
Learn more »
comments
print report bad tab
1 comment total.
0 reply
MusicMan24 1,144 Jul 02, 2009 07:52 AM

Perfect tab man, 5 stars

guest
You may want to rate the tab now too:
select rating
Wanna post a correction for this tab? Suggest correction