Oops, an error
Loading. Please wait.
We have an official One tab made by UG professional guitarists. Check out the tab »
×

One bass

version 3
version 3

Whole song

  • Based on the bass master track: https://www.youtube.com/watch?v=wfuHxpnijYM.
109,147 views 303 this week
7 commentsread comments
1 2 3 4 5
x 34
add to favorites
×
Save as Personal and add changes to this tab that will be seen only by you. Learn more ›
×
You can save this tab as Personal to edit and correct it or add notes. All changes will be seen only by you. Learn more »
launch autoscroll
font size
0
reset
guitar tuner
backing track
0:00
0:00
edit
Autoscroll
slow
fast
+/-
esc
set tempo
stop
[Intro]

G|-----------------------------------|
D|-----------------------------------|
A|-----------------------------------|
E|-7-7-7-7-7\--3--3-0-2-7--7-7/8\7-3-|

G|-----------------------------|
D|-----------------------------|
A|-----------------------------|
E|-3-0-2-7--7-8-7-5--5-5/7\5-3-|

G|-----------------------|
D|-----------------------|
A|-----------------------|
E|-3-2-3-0--7-2-7-3--3-5-|

G|---------------------------------------|
D|-----7---------------------------------|
A|-5-5---5\----------------------7---7---|
E|----------3--3-3\-1--1-1-1-0-7---7---7-|

G|----------------------------------|
D|----------------------------------|
A|-5--5-5\----------------------333-|
E|---------3--3-3-0-1--1-1-3-0------|

[Verse 1]

G|----------------------------------------|
D|----------------------------------------|
A|----------------------------------------|
E|-7--7-7/8\7-3--3-0-3-7--7/8\7-3--5-5/10-|

G|----------------------------------------|
D|----------------------------------------|
A|----------------------------------2---2-|
E|-7--7-7/8\7-5--5-5/7\5-3--3-2-3-0---2---|

G|------------------------------------------|
D|------------------------------------------|
A|------------------------------------------|
E|-7--7-7/8\7-3--3-0-3-7--7-7/8\7-3--5-5/10-|

G|--------------------------------------|
D|--------------------------------------|
A|--------------------------------------|
E|-7--7-7/8\7-5--5-77-5-3--3-2-3-0--2-0-|

[Chorus]

G|----------------------------------|
D|----------------------------------|
A|----------------------------------|
E|-3--5-7-5-3-220-7-5-5-7-9-7-5-8-9-| (2, 2, and 0, not 22 or 20)

G|-----------------------------------------|
D|-----------------------------------------|
A|----------------------------------7--7---|
E|-10--10-10\-3--3-5-3-1--1-1-1-0-7------7-|

G|---------------------------------------|
D|---------------------------------------|
A|-------12--------------------------333-|
E|-10-10----10\-3--3-3-0-1--1-1-3-0------|

[Verse 2]

G|------------------------------------------|
D|------------------------------------------|
A|------------------------------------------|
E|-7--7-7/8\7-3--3-0-3-7--7-7/8\7-3--5-5/10-|

G|----------------------------------------|
D|----------------------------------------|
A|----------------------------------2---2-|
E|-7--7-7/8\7-5--5-5/7\5-3--3-2-3-0---2---|

G|------------------------------------------|
D|------------------------------------------|
A|------------------------------------------|
E|-7--7-7/8\7-3--3-0-3-7--7-7/8\7-3--5-5/10-|

G|------------------------------------|
D|------------------------------------|
A|------------------------------------|
E|-7--7-7/8\7-5--5-77-5-3--3-2-3-0--2-|

[Chorus]

G|-------------------------------|
D|-------------------------------|
A|-------------------------------|
E|-3--5-7-5-3-2-7-5--7-9-7-5-8-9-|

G|------------------------------------------------|
D|-------12---------------------3-----------------|
A|----12----------------------------------7---7---|
E|-10-------10\-3--3-3-3/5-1--1---1-1-0-7---7---7-|

[Guitar Solo 2]

G|----------------------------------------------|
D|----12----------------5----------3------------|
A|-------12---------------------------------7---|
E|-10-------10-10\-3--3---3-3-1--1---1-0--7---7-|

G|--------------------------------------------|
D|-------12-----------------------------------|
A|----12----12----------5---------------------|
E|-10----------10\-3--3---3-1--1-1-3-0--0-0-0-|

G|--------------------------------------------------|
D|--------12----------------------------------------|
A|-----12----12--------------------------------777\-|
E|-10-----------10\-3--3/5-3-1--1-1-3-0-0-0--0------|

[Chorus]

G|-------------------------------|
D|-------------------------------| x2
A|-------------------------------|
E|-3--5-7-5-3-2-7-5--7-9-7-5-7-9-|

G|----------------|
D|----------------|
A|----------------|
E|-3--5-7-5-3-2-7-|

[Interlude]

G|---------------------------------------------|
D|---------------------------------------------| x2
A|-----5-----------3---------------------------|
E|-5-5---5-0-3-3-3---3-0-7-7-0-7-0-8-8-8-0-8-0-|

G|---------------------------------------------|
D|---------------------------------------------| x2
A|-----5-----------3---------------------------|
E|-5-5---5-0-3-3-3---3-0-7-7-0-7-0-8-888-0-8-0-|

G|--------------------------------------------|
D|--------------------------------------------|
A|------------5-5-5---5-----------------------|
E|-0-0-0-3-0--------5---0-7-7-0-7-0-8-8-8-0-8-|

G|-----------------------------------------------|
D|-----------------------------------------------|
A|------------5-5-5---5--------------------------|
E|-0-0-0-3-0--------5---0-7-7-0-7-0-8-888-0-8--0-|

G|------------------------------------------------------|
D|------------------------------------------------------|
A|-------------------------------------------7----------|
E|-0000000--0000000--0000000--0000000--0000000--0000000-|

G|---------------------|
D|---------------------| x5
A|---------------------|
E|-0000000--000000-0-1-|

[Verse 3]

G|---------------------------------------|
D|---------------------------------------| x2
A|---------------------------------------|
E|-0000000--0000000--0000000--000000-0-1-|

G|---------------------|---------------------|
D|---------------------|---------------------|
A|--------7--------7-8-|--------5--------5-8-|
E|-000000----000000----|-000000----000000----|

G|---------------------|---------------------|
D|---------------------|---------------------|
A|--------7--------7-8-|--------5--------5---|
E|-000000----000000----|-000000----000000--7-|

G|---------------------------------------|
D|---------------------------------------| x2
A|---------------------------------------|
E|-0000000--0000000--0000000--000000-0-1-|

G|-----------------------|
D|-----------------------| x4
A|-------2-------2-----3-|
E|-000000--000000--000---|

G|----------------------|
D|----------------------| x2
A|----------------------|
E|-000000--0000000-0000-|

G|-----------------------|
D|-----------------------| x4
A|-------2-------2-----3-|
E|-000000--000000--000---|

G|----------------------|
D|----------------------| x2
A|----------------------|
E|-000000--0000000-0000-|

[Guitar Solo 3]

G|-----------------------|
D|-----------------------| x4
A|-------2-------2-----3-|
E|-000000--000000--000---|

G|----------------------|
D|----------------------|
A|----------------------|
E|-000000--0000000-0000-|

G|----------------------------------------|
D|----------------------------------------|
A|-------2--------2--------2-3------------|
E|-000000---000000-0-000000----333333-3-3-|

G|----------------------------------------|
D|----------------------------------------|
A|-------2--------2--------2-3------------|
E|-000000---000000---000000----333333-3-3-|

G|-------------------------------------------|
D|--------5---------5------------------------| x2
A|--------5---------5--------5-6-------------|
E|-333333----333333----333333-----111111-1-1-|

G|-------|
D|-------| x4
A|-------|
E|-0-0-3-|

G|------------|
D|------------| x2
A|------------|
E|-111111-1-1-|

G|-------|
D|-------| x4
A|-------|
E|-0-0-3-|

G|------------|
D|------------| x2
A|------------|
E|-111111-1-1-|

G|--------------------------|
D|--------------------------|
A|----------555555444333222-|
E|-3333333------------------|

G|-----------------------|
D|-----------------------| x2
A|-------2-------2-----3-|
E|-000000--000000--000---|

G|-----------------------|
D|-----------------------|
A|-------2-------7-----8-|
E|-000000--000000--000---|

G|-----------------------|
D|-----------------------|
A|-------2-------2-----3-|
E|-000000--000000--000---|

G|--------------------------|
D|--------------------------|
A|----------555555444333222-|
E|-3333333------------------|

[Guitar Solo 4]

G|-----------------------|
D|-----------------------| x2
A|-------2-------2-----3-|
E|-000000--000000--000---|

G|-----------------------|
D|-----------------------|
A|-------7-------2-----8-|
E|-000000--000000--000---|

G|-----------------------|
D|-----------------------| x6
A|-------2-------2-----3-|
E|-000000--000000--000---|

Outro

G|-----------------------|
D|-----------------------| x4
A|-------2-------2-----3-|
E|-000000--000000--000---|

G|-------|
D|-------| x4
A|-------|
E|-0-0-3-|

G|----------------------|
D|----------------------|
A|----------------------|
E|-000000-0000000-001---|

G|-------|
D|-------| x4
A|-------|
E|-0-0-3-|

G|------------|-------------|
D|------------|-------------| x3
A|------------|-------------|
E|-000000-0-0-|-0-0-1-0-0-1-|

G|------------|
D|------------|
A|------------|
E|-000000-0-0-|

G|-------|
D|-------| x4
A|-------|
E|-0-0-3-|

G|-----------------------|
D|-----------------------|
A|-------2-------2-----3-|
E|-000000--000000--000---|

G|------------------|
D|------------------|
A|----------7777777-|
E|-0000000--0000000-|


************************************

| /  Slide up
| \  Slide down

************************************

            
            
Suggest correction
Creating personal tab
Creating personal tab
You can edit any tab online and save it as your Personal.

You can edit, replace or remove any tab part or add personal notes – all changes will be seen only by you.

Personal tabs can be accessed anytime from any device, even offline.
Learn more »
comments
print report bad tab
7 comments total. Showing first comments. show 1 bad comment
+1 reply
6BassRocker66 77 Mar 19, 2010 10:17 AM

This has to be the best most accurate tab for this song! 5/5

0 reply
nilschpilsch 213 May 09, 2010 10:16 AM

I noticed a very little difference between the tab and the master track. It sounds like he sometimes plays:
G|-------|
D|-------|
A|-------|
E|-x-x-3-|
instead of
G|-------|
D|-------|
A|-------|
E|-0-0-3-|
but that could just be me :D

guest
You may want to rate the tab now too:
select rating
Wanna post a correction for this tab? Suggest correction