Oops, an error
Loading. Please wait.
We have an official Orion tab made by UG professional guitarists. Check out the tab »
×

Orion tab

version 3
version 3

Whole song

  • Includes Bass-Intro by Cliff Burton, and different... Show more
475 views 12 this week
no commentswrite comment
1 2 3 4 5
3 more votes to show rating
add to favorites
×
Save as Personal and add changes to this tab that will be seen only by you. Learn more ›
×
You can save this tab as Personal to edit and correct it or add notes. All changes will be seen only by you. Learn more »
launch autoscroll
font size
0
reset
how to read this tab
guitar tuner
backing track
0:00
0:00
edit
Autoscroll
slow
fast
+/-
esc
set tempo
stop
Author
Difficulty
About this tab version
Includes Bass-Intro by Cliff Burton, and different Solo-Backing on Bass-Solo 2 and Guitar-Bass-Harmony. Was this info helpful? Yes No
Artist: Metallica
Instrumental: Orion
Album: Master Of Puppets

Movement 1: Rock

[Intro]
Bass
G|4| |--7------------------|----------------------|--7-------------------|--9--------------------||
D|/|8*--9------------------|----------------------|--9-------------------|--9--------------------*|
A|4|x*---------------------|----------------------|--9-------------------|--7--------------------*|
E| | |--7------------------|----------------------|--7-------------------|--0--------------------||
        LR.......................................|   LR.................|   LR.................|

Guitars 1+2
e| |  |----------------------||
B| |  *----------------------*|
G|4|32|----------------------||
D|/|x |----------------------||
A|4|  *----------------------*|
E| |  |----------------------||

MAIN RIFF 1
Guitars 1+2
e| |------------------------|-------------------------|-------------------------|-----------------------||
B| *------------------------|-------------------------|-------------------------|-----------------------*|
G|6|------------------------|-------------------------|-------------------------|-----------------------||
D|x|----------5--------5----|--4--------5--------5----|--4--------4--------4--4-|--4------4--------4--4-||
A| *--7-------7--------7----|--7--------7--------7----|--5--------5--------5--5-|--6------6--------6--6-*|
E| |--0--0--0----0--0-----0-|-----0--0-----0--0-----0-|-----7--7-----7--7-------|-----7--7---7--7-------||
         PM      PM..|    PM      PM..|    PM..|    PM      PM..|    PM..|            PM     PM..|

[Interlude]
Bass-Solo-Backing
Guitars 1+2
e| |-----------------------------|----------------------|
B| *-----------------------------|----------------------|
G|3|--------------2--------------|--5-------------------|
D|x|--------------2-------2------|--5-------------------|
A| *--------------0-------2------|--3-------------------|
E| |--0--0--0--0----------0------|----------------------|
      PM........| LR....| LR....|   LR.................|


e|-----------------------------|-----------------------||
B|-----------------------------|-----------------------*|
G|--------------5--------------|--2--------------------||
D|--------------5-------2------|--2--------------------||
A|--------------3-------2------|--0--------------------*|
E|--0--0--0--0----------0------|-----------------------||
    PM........| LR....| LR....|   LR.................|

e|-----------------------------|----------------------|
B|-----------------------------|----------------------|
G|--------------2--------------|--5-------------------|
D|--------------2-------2------|--5-------------------|
A|--------------0-------2------|--3-------------------|
E|--0--0--0--0----------0------|----------------------|
    PM........| LR....| LR....|   LR.................|


e|-----------------------------|--------------------------|
B|-----------------------------|--------------------------|
G|--------------5--------------|--2-----------------------|
D|--------------5-------2------|--2-----------------------|
A|--------------3-------2------|--0-----------------------|
E|--0--0--0--0----------0------|----------0--0-0-1--1-1-0-|
    PM........| LR....| LR....|   LR....| PM............|


e| |-------------------------------|------------------------------|
B| *-------------------------------|------------------------------|
G|3|---------2---------------------|--5---------------------------|
D|x|---------2----------2----------|--5---------------------------|
A| *---------0----------2----------|--3---------------------------|
E| |--0--0-0----0-0-0-0-0--0-0-0-0-|-----0-0-0-0-0--0-0--1--1-1-0-|
      PM...|    PM....|    PM....|       PM.....................|

e|-------------------------------|------------------------------||
B|-------------------------------|------------------------------*|
G|---------5---------------------|--2---------------------------||
D|---------5----------2----------|--2---------------------------||
A|---------3----------2----------|--0---------------------------*|
E|--0--0-0----0-0-0-0-0--0-0-0-0-|-----0-0-0-0-0--0-0--1--1-1-0-||
    PM...|    PM....|    PM....|       PM.....................|


[Solo-Bridge]
MAIN RIFF
Guitars 1+2
e||------------------------|-------------------------|-------------------------|-----------------------||
B|*------------------------|-------------------------|-------------------------|-----------------------*|
G||------------------------|-------------------------|-------------------------|-----------------------||
D||----------5--------5----|--4--------5--------5----|--4--------4--------4--4-|--4------4--------4--4-||
A|*--7-------7--------7----|--7--------7--------7----|--5--------5--------5--5-|--6------6--------6--6-*|
E||--0--0--0----0--0-----0-|-----0--0-----0--0-----0-|-----7--7-----7--7-------|-----7--7---7--7-------||
        PM      PM..|    PM      PM..|    PM..|    PM      PM..|    PM..|            PM     PM..|

[Solo-Backing 1]
Guitar 1
e| |------------------------|-------------------------|-------------------------|-----------------------||
B| *------------------------|-------------------------|-------------------------|-----------------------*|
G|4|------------------------|-------------------------|-------------------------|-----------------------||
D|x|----------5--------5----|--4--------5--------5----|--4--------4--------4--4-|--4------4--------4--4-||
A| *--7-------7--------7----|--7--------7--------7----|--5--------5--------5--5-|--6------6--------6--6-*|
E| |--0--0--0----0--0-----0-|-----0--0-----0--0-----0-|-----7--7-----7--7-------|-----7--7---7--7-------||
         PM      PM..|    PM      PM..|    PM..|    PM      PM..|    PM..|            PM     PM..|

e|-------------------------|-------------------------|-------------------------|-------------------------|
B|-------------------------|-------------------------|-------------------------|-------------------------|
G|-------------------------|-------------------------|-------------------------|-------------------------|
D|--4--4--4-----------2----|--4--4--4-----------2----|--4--4--4-----------4----|--------------------2----|
A|--2--2--2--2--2--2--2--0-|--2--2--2--2--2--2--2--0-|--0--0--0--0--0--0--0----|--4--4--4-----------0--0-|
E|-------------------------|-------------------------|-----------------------0-|--2--2--2--2--2--2-------|
             PM....|                   PM....|                   PM....|                   PM....|

e|-------------------------|-------------------------|-------------------------|-------------------------|
B|-------------------------|-------------------------|-------------------------|-------------------------|
G|--4--4--4----------------|-------------------------|-------------------------|-------------------------|
D|--4--4--4-----------2----|--4--4--4-----------4----|-------------------------|--2-----------3--2--2----|
A|--2--2--2--2--2--2--2--0-|--0--0--0--0--0--0--0----|--4--4--4-----------2--2-|--2-----------2--2--2----|
E|-------------------------|-----------------------0-|--2--2--2--2--2--2--0--0-|--0--------0--0--0--0----|
             PM....|                   PM....|                   PM....|                            LR..|

e|---------------------|
B|---------------------|
G|---------------------|
D|---------------------|
A|---------------------|
E|---------------------|
  LR..................|

[Solo 1]
Guitar 2
e||-------------------------|---------------------------|--------------------|-------------------||
B|*-------------------------|---------------------------|--------------------|-------------------*|
G||-------------------------|---------------------------|--------------------|-------------------||
D||-----4h5p4---4-4h5p4-----|-------4h5p4---4-4h5p4-----|---------5-5-4------|---------5-5-4-4---||
A|*-----------7---------7---|-(7)---------7---------7---|-(7)-----------5----|-(5)---------------*|
E||-------------------------|---------------------------|--------------------|-------------------||

e|--------------------------|---------------------------------|------------------------------------|
B|--------------------------|---------------------------------|------------------------------------|
G|--------------------------|-----------------------12--14b16-|--(14b16)----14--14--12--12--11--12-|
D|--4-h5--5s/7--7s/9--9s/12-|--12s/14--14--14----14-----------|------------------------------------|
A|--------------------------|---------------------------------|------------------------------------|
E|--------------------------|---------------------------------|------------------------------------|

e|---------------------------|------------------------------------|
B|------------------------15-|--15-----------------------------12-|
G|----11---------------12----|--14b16-----14b16--14--------14-----|
D|--------12-----------------|------------------------------------|
A|---------------------------|------------------------------------|
E|---------------------------|------------------------------------|

e|------------------------------------------------------12-|
B|--15b17-r15b17r15b17r15b17-r115b17r15b17r15b17-----15----|
G|---------------------------------------------------------|
D|---------------------------------------------------------|
A|---------------------------------------------------------|
E|---------------------------------------------------------|

e|--15-14-12-15-14-12-15p14p12-15-14-12-15p14p12-15p12-|--17b19----17b19----17b19--17----------|
B|-----------------------------------------------------|---------------------------------17b19-|
G|-----------------------------------------------------|---------------------------------------|
D|-----------------------------------------------------|---------------------------------------|
A|-----------------------------------------------------|---------------------------------------|
E|-----------------------------------------------------|---------------------------------------|

e|----------------------------------------|-------------------------------------|
B|--(17b19)----17b19----17p15----15-17b19-|--(17b19)-17b19--17p15----15---------|
G|----------------------------16----------|-----------------------16----16------|
D|----------------------------------------|-------------------------------------|
A|----------------------------------------|-------------------------------------|
E|----------------------------------------|-------------------------------------|

e|-----------------------------------------------|--17b19------17b19--17----------14-15-|
B|-----15-19----15-19----15-19----15-19----15-19-|--------------------------------------|
G|--16-------16-------16-------16-------16-------|--------------------------------------|
D|-----------------------------------------------|--------------------------------------|
A|-----------------------------------------------|--------------------------------------|
E|-----------------------------------------------|--------------------------------------|

e|--17--15--14--15--14h15-12h14-10h12-8h10|--7h8-5h7-3h5-2h3p2------3p2---|
B|----------------------------------------|-----------------------------5-|
G|----------------------------------------|-------------------------------|
D|----------------------------------------|-------------------------------|
A|----------------------------------------|-------------------------------|
E|----------------------------------------|-------------------------------|

e|-------------------------------|-----------------------------|-----------------------------------|
B|--3-----3--5b7------5b7--5p3---|--3h5--------3------2------3-|--4h6p4h6p4h6p4h6p4h6ü4------------|
G|-----4-----------------------4-|-----------------------------|-----------------------------------|
D|-------------------------------|-----------------------------|-----------------------------------|
A|-------------------------------|-----------------------------|-----------------------------------|
E|-------------------------------|-----------------------------|-----------------------------------|


Guitar 1+2
e|------------------------|---------------------------|---------------------------|-----------------------|
B|------------------------|---------------------------|---------------------------|-----------------------|
G|--4---------------------|---------------------------|---------------------------|-----------------------|
D|--4--------4--4--4--2---|--4--------3---3---3---2---|--4--------3---3---3---2---|--2--------------------|
A|--2--------2--2--2--2---|--0--------0---0---0---0---|--4--------4---4---4---4---|--2--------------------|
E|------------------------|---------------------------|--2--------2---2---2---2---|--0--------------------|
             PM....|                  PM......|                   PM..........|      LR..................|

e|-------------------------------|---------------------------------|---------------------------------|
B|-------------------------------|---------------------------------|---------------------------------|
G|-------------------------------|---------------------------------|---------------------------------|
D|-------------------------------|---------------------------------|---------------------------------|
A|-------------------------------|---------------------------------|---------------------------------|
E|-------------------------------|---------------------------------|---------------------------------|
   LR...........................................................|

Movement 2: Slow Waltz
Bridge to Harmony 1
Guitar 1+2 (switch to neck-pick-up)
e| |-------------------------------|---------------------------------|
B| |-------------------------------|---------------------------------|
G|6|-------------------------------|---------------------------------|
D|/|-------------------------------|---------------------------------|
A|8|-------------------------------|---------------------------------|
E| |-------------------------------|---------------------------------|

  Guitar 1
e|---------------------|-#12--------------#5--|-#5-------------------|-------------------#5--|
B|-----------------#12-|----------------------|----------------------|-----------------------|
G|---------------------|----------------------|----------------------|-----------------------|
D|---------------------|----------------------|----------------------|-----------------------|
A|---------------------|----------------------|----------------------|-----------------------|
E|---------------------|----------------------|----------------------|-----------------------|
 |
 |Guitar 2
e|---------------------|----------------------|----------------------|-----------------------|
B|---------------------|----------------------|----------------------|-----------------------|
G|---------------------|----------------------|----------------------|-----------------------|
D|---------------------|----------------------|----------------------|-----------------------|
A|---------------------|----------------------|----------------------|-----------------------|
E|---------------------|----------------------|----------------------|-----------------------|


  Guitar 1
e|---------------------|------------------#5--|-#5-------------------|
B|---------------------|----------------------|----------------------|
G|---------------------|----------------------|----------------------|
D|---------------------|----------------------|----------------------|
A|---------------------|----------------------|----------------------|
E|---------------------|----------------------|----------------------|
 |
 |Guitar 2
e|---------------------|----------------------|----------------------|
B|---------------------|----------------------|----------------------|
G|---------------------|----------------------|----------------------|
D|---------------------|----------------------|----------------------|
A|---------------------|----------------------|----------------------|
E|---------------------|----------------------|----------------------|

Harmony 1
  Guitar 1
e||---------------------|---------------------------------|----------------------|-----------------------||
B|*---------------------|---------------------------------|----------------------|-----------------------*|
G||---9b=====11=========|============-9b11==(9b11)r--6----|--6-------------------|----------------(6)----||
D||---------------------|-------------------------------9-|----------------------|-----------------------||
A|*---------------------|---------------------------------|----------------------|-----------------------*|
E||---------------------|---------------------------------|----------------------|-----------------------||
 |    LR.........................|                          LR...........................|
 |
 |Guitar 2
e||---------------------|---------------------------------|----------------------|-----------------------||
B|*---------------------|---------------------------------|----------------------|-----------------------*|
G||---------------------|---------------------------------|----------------------|-----------------------||
D||---9b=====11=========|=============-9b======11----7-p6-|--7-------------------|-----------------------||
A|*---------------------|---------------------------------|----------------------|-----------------------*|
E||---------------------|---------------------------------|----------------------|-----------------------||
      LR.........................|                          LR...........................|


  Guitar 1
e|---------------------|---------------------------------|----------------------|-----------------------|
B|---------------------|---------------------------------|----------------------|-----------------------|
G|---9b=====11=========|============-9b==11(9b11)r--6----|--6-------------------|----------------(7)----|
D|---------------------|-------------------------------9-|------7---7---7-------|-----------------------|
A|---------------------|---------------------------------|----------------------|-----------------------|
E|---------------------|---------------------------------|----------------------|-----------------------|
 |   LR.........................|                               PM...|  LR.......................|
 |
 |Guitar 2
e|---------------------|---------------------------------|----------------------|-----------------------|
B|---------------------|---------------------------------|----------------------|-----------------------|
G|---------------------|---------------------------------|----------------------|-----------------------|
D|---9b=====11=========|=============-9b======11----7-p6-|--7-------------------|-----------------------|
A|---------------------|---------------------------------|------9---9---9-------|-----------------------|
E|---------------------|---------------------------------|----------------------|-----------------------|
     LR.........................|                               PM...|  LR.......................|

  Guitar 1
e|---------------------|---------------------------------|------------------------|-----------------------|
B|---------------------|---------------------------------|------------------------|-----------------------|
G|---9b=====11=========|============-9b==11(9b11)r--6----|--6---------------------|-----------------------|
D|---------------------|-------------------------------9-|------7---7---7---6---6-|--7---6---6--7--9------|
A|---------------------|---------------------------------|------------------------|-----------------------|
E|---------------------|---------------------------------|------------------------|-----------------------|
 |   LR.........................|                               PM...|      PM...|       PM
 |
 |Guitar 2
e|---------------------|---------------------------------|------------------------|-----------------------|
B|---------------------|---------------------------------|------------------------|-----------------------|
G|---------------------|---------------------------------|------------------------|-----------------------|
D|---9b=====11=========|=============-9b======11----7-p6-|--7---------------------|----------------6------|
A|---------------------|---------------------------------|------9---9---9---7---7-|--9---7---7--9---------|
E|---------------------|---------------------------------|------------------------|-----------------------|
     LR.........................|                               PM...|      PM...|       PM


  Guitar 1
e|---------------------|---------------------------------|----------------------|-----------------------|
B|---------------------|---------------------------------|----------------------|-----------------------|
G|---------------------|---------------------------------|--6-------------------|---------------------9b|
D|---------------------|-----------7--9/11---9---7---9---|------4---7---7-------|-----------------------|
A|--9------------------|-----7--9------------------------|----------------------|-----------------------|
E|---------------------|---------------------------------|----------------------|-----------------------|
 |  LR....................|  PM.......|                                 LR.......................|
 |
 |Guitar 2
e|---------------------|---------------------------------|----------------------|-----------------------|
B|---------------------|---------------------------------|----------------------|-----------------------|
G|---------------------|---------------------------------|----------------------|-----------------------|
D|---------------------|---------------------------------|----------------------|---------------------9b|
A|---------------------|---------------------------------|--------------9-------|-----------------------|
E|---------------------|---------------------------------|----------------------|-----------------------|
                                                                        LR.......................|


  Guitar 1
e|---------------------|-------------------------------|------------------------|---------------------------|
B|---------------------|-------------------------------|------------------------|---------------------------|
G|b====11--(11r9)======|==(b11)==-r9b11r==9--6h9--6----|--6---------------------|---------------------9-9-9-|
D|---------------------|-----------------------------9-|------7---7---7---6---6-|--7---6---6--7-/9----------|
A|---------------------|-------------------------------|------------------------|---------------------------|
E|---------------------|-------------------------------|------------------------|---------------------------|
 |LR.............................|                            PM...|      PM...|       PM
 |
 |Guitar 2
e|---------------------|-------------------------------|------------------------|---------------------------|
B|---------------------|-------------------------------|------------------------|---------------------------|
G|---------------------|-------------------------------|------------------------|---------------------------|
D|b====11--(11r9)======|--(b11)==-r9b11r===9------7-p6-|--7---------------------|---------------------------|
A|---------------------|-------------------------------|------9---9---9---7---7-|--9---7---7--9-/11---------|
E|---------------------|-------------------------------|------------------------|---------------------------|
  LR.............................|                            PM...|      PM...|       PM


  Guitar 1
e|-----------------------------|-----------------------------|---------------------|
B|-----------------------------|-----------------------------|---------------------|
G|---9---9--9--9---9---6---6-/-|-/7---7---7----------------6-|--6------------------|
D|-----------------------------|--------------9--7--6---7----|---------------------|
A|-----------------------------|-----------------------------|---------------------|
E|-----------------------------|-----------------------------|---------------------|
 |                                                              LR................
 |Guitar 2
e|-----------------------------|-----------------------------|---------------------|
B|-----------------------------|-----------------------------|---------------------|
G|-----------------------------|-----------------------------|---------------------|
D|-----------------------------|-----------------------------|---------------------|
A|-----------------------------|-----------------------------|--12-----------------|
E|-----------------------------|-----------------------------|---------------------|
                                                                LR................

  Guitar 1
e|-----------------------------|---------------------------|------------------------------|-----------------|
B|-----------------------------|---------------------------|------------------------------|-----------------|
G|---------------9--9--9--9--9-|---9---9--9--9---9---6---6-|---7---7---7----------------6-|--6--------------|
D|-----------------------------|---------------------------|---------------9--7--6---7----|-----------------|
A|-----------------------------|---------------------------|------------------------------|-----------------|
E|-----------------------------|---------------------------|------------------------------|-----------------|
 |LR..........|                        PM.....|      PM...|        PM...|                    LR............
 |
 | Guitar 2
e|-----------------------------|---------------------------|------------------------------|-----------------|
B|-----------------------------|---------------------------|------------------------------|-----------------|
G|-----------------------------|---------------------------|------------------------------|-----------------|
D|--------------11-11-11-11-11-|--11--11-11-11--11---------|---9---9---9---6--4------4--7-|--7--------------|
A|-----------------------------|--------------------12--12-|---------------------5--------|-----------------|
E|-----------------------------|---------------------------|------------------------------|-----------------|
  LR.........|                         PM.....|      PM...|        PM...|                    LR............

  Guitar 1
e|---------------------|-------------------|---------------------|---------------------|--------------------|
B|---------------------|---2---------------|---------------------|---------------------|--------------------|
G|---------4b=6==r4--2-|---2---------------|-------------------2-|---------------------|--------------------|
D|---------------------|-------------------|--------------2--2---|---4-----------------|--------------------|
A|---------------------|-------------------|---------------------|---------------------|--------------------|
E|---------------------|-------------------|---------------------|---------------------|--------------------|
 |LR....|                  LR...........................|            LR........................|
 |
 |Guitar 2
e|---------------------|-------------------|---------------------|---------------------|--------------------|
B|---------------------|-------------------|---------------------|---------------------|--------------------|
G|---------4b=6==r4--2-|-------------------|-------------------2-|---------------------|--------------------|
D|---------------------|---4---------------|--------------2--2---|---4-----------------|------------4--s/---|
A|---------------------|-------------------|---------------------|---------------------|--------------------|
E|---------------------|-------------------|---------------------|---------------------|--------------------|
  LR....|                  LR...........................|            LR........................|

Guitar 1+2
e|-------------------------|-----------------------|-------------------------|-----------------------|
B|-------------------------|-----------------------|-------------------------|-----------------------|
G|---------6----6----6-9-6-|--7--7-----------------|---------6----6----6-9-6-|--7--7-----------------|
D|-------7----7----7-------|-------9-6-------6-9-6-|--7----7----7----7-------|-------9-6-------6-9-6-|
A|--9--9-------------------|------------7--7-------|-----9-------------------|------------7--7-------|
E|-------------------------|-----------------------|-------------------------|-----------------------|

Harmony 2
  Guitar 1
e|-------------------------|-----------------------|-------------------------|---------------------------|
B|-------------------------|-----------------------|-------------------------|---------------------------|
G|---------6----6----6-9-6-|--7--7-----------------|---------6----6----6-9-6-|--7-7-7-7------------------|
D|--7----7----7----7-------|-------9-6-------6-9-6-|--7----7----7----7-------|------------9-6------6-9-6-|
A|-----9-------------------|------------7--7-------|-----9-------------------|----------9-----7--7-------|
E|-------------------------|-----------------------|-------------------------|---------------------------|
 |
 |Guitar 2
e|-------------------------|-----------------------|-------------------------|---------------------------|
B|--------------------10---|--7--7-----------------|-------------------10----|--7-7-7-7------------------|
G|--6-----6-9-6-9--9-----9-|-------7-----------7---|--6-----6-9-6-9--9-----9-|----------7---7--------7---|
D|-----7-------------------|---------9--6--6-9---9-|-----7-------------------|------------9---6--6-9---9-|
A|-------------------------|-----------------------|-------------------------|---------------------------|
E|-------------------------|-----------------------|-------------------------|---------------------------|

  Guitar 1
e||-------------------------|------------------------|-----------------------|-----------------------||
B|*-------------------------|------------------------|-----------------------|-----------------------*|
G||---------6-9-6------9--9\|-\7------7-9----------6-|--7------6-9-6------9-9|--7------7-9---------6-||
D||--7----------------------|-------------6------7---|-----------------------|-------------6-----7---||
A|*-------------------------|------------------------|-----------------------|-----------------------*|
E||-------------------------|------------------------|-----------------------|-----------------------||
 |   LR....|    LR....|        LR....|    LR....|       LR....|    LR....|      LR....|    LR....|
 |Guitar 2
e||-------------------------|------------------------|-----------------------|-----------------------||
B|*-----------10---------10\|-\7------7-10-----------|----------10---------10|- 7------7-10----------*|
G||--6------9---9------9----|--------------9-----9-9-|--6-----9----9-----9---|-------------9-----9-9-||
D||-------------------------|------------------------|-----------------------|-----------------------||
A|*-------------------------|------------------------|-----------------------|-----------------------*|
E||-------------------------|------------------------|-----------------------|-----------------------||
     LR....|    LR....|        LR....|    LR....|       LR....|    LR....|      LR....|    LR....|

[Solo-Backing 2]
Guitar 1 (switch to bridge-pick-up)
e| |-----------------------|------------------------||
B| *-----------------------|------------------------*|
G|4|-----------------------|------------------------||
D|x|--11---------14--------|------------------------||
A| *--9----------12--------|--14----------11--------*|
E| |-----------------------|--12----------9---------||
      LR.......| LR.....|     LR.....|    LR.....|

[Solo 2]
Guitar 2 (switch to bridge-pick-up)
e|-------------------------------------|-----------------------------14-15-17|
B|-------------------------------------|-----------------12-14-15-17---------|
G|-------------------------------------|--------11-13-14---------------------|
D|--------------11----------11-12-14-11|--12-14------------------------------|
A|--12-11-12-14----11-12-14------------|-------------------------------------|
E|-------------------------------------|-------------------------------------|

e|--17-----17--17--14-17p14-14h17p14-12|-------------------------------------|
B|-------------------------------------|--14p12-------------------17---------|
G|-------------------------------------|--------14p11-14-16-16b18----16b18---|
D|-------------------------------------|-------------------------------------|
A|-------------------------------------|-------------------------------------|
E|-------------------------------------|-------------------------------------|

e|-------------------------------|---------------------------------------------|
B|-------------------------------|-----------------------17-\-16-16-14-13-14---|
G|-------------------------------|--------------16h17h19-----------------------|
D|--16---16--18--19--21--19--18--|--16h17h19h21--------------------------------|
A|-------------------------------|---------------------------------------------|
E|-------------------------------|---------------------------------------------|

e|--------------------------------------------|--------------------------------------|
B|--------------------------------------------|--------------------------------------|
G|--13----------------------------------------|--------------------------------------|
D|------14------------------------------------|--------------------------------------|
A|----------14--12--14--14b16-12----------12--|--14--12--14--12--14b16r-12-----------|
E|--------------------------------14--14------|-----------------------------14--14---|


[Bass-Solo-Backing 2]
Guitar 1+2
e||---------------------|-----------------------||
B|*---------------------|-----------------------*|
G||---------------------|-----------------------||
D||--9---------12-------|-----------------------||
A|*--7---------10-------|--12----------9--------*|
E||---------------------|--10----------7--------||
     LR.....|  LR......|   LR........| LR......|

[Guitar-Bass-Harmony-Backing]
Guitar 1
e|---------------------|-----------------------|
B|---------------------|-----------------------|
G|---------------------|-----------------------|
D|--9---------12-------|-----------------------|
A|--7---------10-------|--12----------9--------|
E|---------------------|--10----------7--------|
    LR.....|  LR......|   LR........| LR......|

e|---------------------| |-----------------------------|
B|---------------------| |-----------------------------|
G|---------------------|4|-----------------------------|
D|--9---------12-------|/|-----------------------------|
A|--7---------10-------|4|--12----------9--------2--2--|
E|---------------------| |--10----------7--------0--0--|
    LR.....|  LR......|   LR........| LR.....|

[Guitar-Bass-Harmony]
Guitar 2
e|----------------------------------------|----------------------------------------|
B|----------------------------------------|----------------------------------------|
G|--7--------7----------------------------|----------------------------------------|
D|-----9--------9------9--------9---------|--10--7-----10--7-----7------------7----|
A|--------10-------10----10--7-----10--7--|---------9---------9-----9------9-----9-|
E|----------------------------------------|----------------------------10----------|

e|-------------------------------------------| |---------------------------------------------------|
B|-------------------------------------------| |---------------------------------------------------|
G|--11b12--11-9-11b12r11--9-11-11-9--7--9--7-|4|--9--7-h9-p7--5--7--5--4--5--4--2--4--5--4---------|
D|-------------------------------------------|/|--------------------------------------------5--5---|
A|-------------------------------------------|4|---------------------------------------------------|
E|-------------------------------------------| |---------------------------------------------------|



Movement 3: Rock
[Solo-Bridge 3]
Guitars 1+2
e|----------------------|----------------------|----------------------| |-----------------------|
B|----------------------|----------------------|----------------------| |-----------------------|
G|--2----------------5--|----------------------|--5----------------2--|3|-----------------------|
D|--2--------2-------5--|----------------------|--5--------2-------2--|/|-----------------------|
A|--0--------2-------3--|----------------------|--3--------2-------0--|4|-----------------------|
E|-----------0----------|----------------0---0-|-----------0----------| |-----------------------|
    LR.....| LR....| LR..............|   PM..|    LR.....| LR....| LR..............|

[Solo-Backing 3]
Guitar 1
e| ||------------------------|------------------------|------------------------|------------------------|
B| |*------------------------|------------------------|------------------------|------------------------|
G|4||--4--4--4---------------|--------------------4---|------------------------|------------------------|
D|/||--4--4--4-----------2---|--4--4--4-----------4---|--4--4--4-----------4---|--------------------2---|
A|4|*--2--2--2--2--2--2--0---|--2--2--2--2--2--2--2---|--0--0--0--0--0--0--0---|--4--4--4-----------0---|
E| ||------------------------|------------------------|------------------------|--2--2--2--2--2--2------|
                PM.....|                 PM.....|                 PM.....|                 PM.....|

e|------------------------|------------------------|------------------------|------------------------||
B|------------------------|------------------------|------------------------|------------------------*|
G|------------------------|------------------------|------------------------|------------------------||
D|--4--4--4-----------2---|--4--4--4-----------4---|--------------------2---|--2--2--------------2---||
A|--2--2--2--2--2--2--0---|--0--0--0--0--0--0--0---|--4--4--4-----------0---|--2--2--------------2---*|
E|------------------------|------------------------|--2--2--2--2--2--2------|--0--0--0--0--0--0--0---||
             PM.....|                 PM.....|                 PM.....|                 PM.....|

[Solo 3]
Guitar 2
e|-----------------------------------------|--------------------------------------------|
B|--10b12-----10b12-----10b12-----10b12-10-|----10b12--10b12--10b12--10b12--10-----10p7-|
G|-----------------------------------------|--------------------------------------------|
D|-----------------------------------------|--------------------------------------------|
A|-----------------------------------------|--------------------------------------------|
E|-----------------------------------------|--------------------------------------------|

e|---------------------------------------------------|--10p7----10p7----10p7----10p7----10p7----10p7-|
B|--------7-10p7-10b12-10p7--------7-10p7-10b12-10p7-|--------7-------7-------7-------7-------7------|
G|--9b11---------------------9b11--------------------|-----------------------------------------------|
D|---------------------------------------------------|-----------------------------------------------|
A|---------------------------------------------------|-----------------------------------------------|
E|---------------------------------------------------|-----------------------------------------------|

e|--10b12-----10b12--10-----7--10--10b12-|-------10b12--10------------10p7-|
B|--------------------------7------------|---------------------------------|
G|---------------------------------------|---------------------------------|
D|---------------------------------------|---------------------------------|
A|---------------------------------------|---------------------------------|
E|---------------------------------------|---------------------------------|



e|--10p7--------------------------------------|----------------------------------|
B|-------10p7-10p7----------------------------|----------------------------------|
G|-----------------#9--7-#9-p7----------------|----------------------------------|
D|----------------------------#9--7-#9-p7-----|----------------------------------|
A|----------------------------------------9\8-|--#7-p5-#7-p5---#7-p5-#7-p5---5---|
E|--------------------------------------------|--------------7-------------7-----|

e|--------------------------------------|-------------------------------22b24-22p19-------19-22p19-|
B|------------------------------------19|--------19-22-22b24(b24)-22p19-------------22b24----------|
G|----------------------#7--------------|--21b23---------------------------------------------------|
D|-----------------7h#9----#9--(9)/21---|----------------------------------------------------------|
A|--------5--7-#9-----------------------|----------------------------------------------------------|
E|--5h7---------------------------------|----------------------------------------------------------|



e|--------19-------19-------19-------------19-------19-------19------|
B|--22b24----22b24----22b24----22b24-22b24----22b24----22b24----22-22|
G|-------------------------------------------------------------------|
D|-------------------------------------------------------------------|
A|-------------------------------------------------------------------|
E|-------------------------------------------------------------------|

e|--------19-22p19----19-22p19----19-22p19----19-22-22b24----|
B|--21b23----------21----------21----------21----------------|
G|-----------------------------------------------------------|
D|-----------------------------------------------------------|
A|-----------------------------------------------------------|
E|-----------------------------------------------------------|

e|----22--22-------22--22--------22b24-|--------22--22-------22--22-----------|
B|-----------#2#4----------#2#4--------|--#2#4----------2h4----------2h4--7p6-|
G|-------------------------------------|--------------------------------------|
D|-------------------------------------|--------------------------------------|
A|-------------------------------------|--------------------------------------|
E|-------------------------------------|--------------------------------------|

e|------------------------------------|-------------------------------|
B|--7p6---7p6---7p6---7p6---7p6---7p6-|-------------------------------|
G|------9-----9-----9-----9-----9-----|--#4p2p0#4p2p0#4p2-2-2---------|
D|------------------------------------|------------------------2--2---|
A|------------------------------------|-------------------------------|
E|------------------------------------|-------------------------------|



[Outro]
Guitars 1+2
e| |-------------------------------------------|-----------------------------------------|
B| *-------------------------------------------|-----------------------------------------|
G|4|------------2------------------------------|--5--------------------------------------|
D|x|------------2---------------2--------------|--5--------------------------------------|
A| *------------0---------------2--------------|--3--------------------------------------|
E| |--0---0--0------0--0--0--0--0---0--0--0--0-|------0--0--0--0--0---0--0--1---1--1--0--|
      PM.....|      PM.......|      PM.......|        PM................................|

e|-------------------------------------------|-----------------------------------------||
B|-------------------------------------------|-----------------------------------------*|
G|------------5------------------------------|--2--------------------------------------||
D|------------5---------------2--------------|--2--------------------------------------||
A|------------3---------------2--------------|--0--------------------------------------*|
E|--0---0--0------0--0--0--0--0---0--0--0--0-|------0--0--0--0--0---0--0--1---1--1--0--||
     PM.....|      PM.......|      PM.......|        PM...............................|

e|-------------------------------------------|-----------------------------------------|
B|-------------------------------------------|-----------------------------------------|
G|------------2------------------------------|--5--------------------------------------|
D|------------2---------------2--------------|--5--------------------------------------|
A|------------0---------------2--------------|--3--------------------------------------|
E|--0---0--0------0--0--0--0--0---0--0--0--0-|------0--0--0--0--0---0--0--1---1--1--0--|
    PM.....|       PM.......|      PM.......|        PM................................|

e|-------------------------------------------|-----------------------------------------|
B|-------------------------------------------|-----------------------------------------|
G|------------5------------------------------|--2--------------------------------------|
D|------------5---------------2--------------|--2--------------------------------------|
A|------------3---------------2--------------|--0--------------------------------------|
E|--0---0--0------0--0--0--0--0---0--0--0--0-|-----------------------------------------|
     PM.....|      PM.......|      PM.......|   LR...................................|


e|---------------------|----------------------|
B|---------------------|----------------------|
G|---------------------|----------------------|
D|---------------------|----------------------|
A|---------------------|----------------------|
E|---------------------|----------------------|
  LR.......................|


---------------------------------------------------------------------------------------
Tabulature Legend
---------------------------------------------------------------------------------------
 h   - hammer-on
 p   - pull-off
 b   - bend
 =   - hold bend; also acts as connecting device for hammers/pulls
 PM  - palm muting
 LR  - let ring
 |*  - repeat x-times
 /   - slide up
 \   - slide down
 s   - slide
 #   - artifical harmonic
 ~   - vibrato
 ()  - ghost note
---------------------------------------------------------------------------------------

            
            
Suggest correction
Creating personal tab
Creating personal tab
You can edit any tab online and save it as your Personal.

You can edit, replace or remove any tab part or add personal notes – all changes will be seen only by you.

Personal tabs can be accessed anytime from any device, even offline.
Learn more »
Give kudos to tab author, rate the tab!
1 2 3 4 5
comments
print report bad tab
guest
You may want to rate the tab now too:
select rating
Wanna post a correction for this tab? Suggest correction