Oops, an error
Loading. Please wait.

The Unforgiven Iii bass

version 2
version 2

Whole song

14,252 views 6 this week
3 commentsread comments
1 2 3 4 5
x 11
add to favorites
×
Save as Personal and add changes to this tab that will be seen only by you. Learn more ›
×
You can save this tab as Personal to edit and correct it or add notes. All changes will be seen only by you. Learn more »
launch autoscroll
font size
0
reset
guitar tuner
backing track
0:00
0:00
edit
Autoscroll
slow
fast
+/-
esc
set tempo
stop
Author
Difficulty
The Unforgiven III
Metallica
Death Magnetic
BASS TAB
Tunning: Standard (E, A, D, G)

0:55       (x8) 1:11                                    1:27
|-------------|----------------------------------------|-----------------|
|-*---------*-|-*--------------------------------5-4-*-|-----------------|
|-*---------*-|-*---------------3-------2----3-2-----*-|-----------------|
|--0-----1/2--|--1/2--0-----1/2------------------------|--0----1/2-0--1--|

           1:35                                                     (x4)
----------|------------------------------------------------------------|
----------|-*---------------5------------------5--7--------------5---*-|
----------|-*---------5--7-----7---------5--7---------------5--7---7-*-|
2----0----|--0--5--7---------------5--7---------------5--7-----------7-|

2:07
|-----------------------------------------------------------------------|
|-----------------------------------------------------------------------|
|-------------------------------5-4--4-3--3-2--2-1----------------------|
|--7---7--5---5--4---4--3---3-----------------------7---7--5---5--4---4-|

---------------------------------------------------------------------|
---------------------------------------------------------------------|
---------5-4--4-3--3-2--2-1b-----------------------------------------|
-3---3------------------------5-4--4-3--3-2--2-1--0---1/2---0---1/2--|

2:26                                 (x4) 2:57
|----------------------------------------|------------------|
|-*--------------------------------5-4-*-|------------------|
|-*---------------3-------2----3-2-----*-|------------------|
|--1/2--0-----1/2------------------------|--0----1/2-0---1--|

           3:04                                                     (x4)
----------|------------------------------------------------------------|
----------|-*---------------5------------------5--7--------------5---*-|
----------|-*---------5--7-----7---------5--7---------------5--7---7-*-|
2----0----|--0--5--7---------------5--7---------------5--7-----------7-|

3:35
|-----------------------------------------------------------------------|
|-----------------------------------------------------------------------|
|-------------------------------5-4--4-3--3-2--2-1----------------------|
|--7---7--5---5--4---4--3---3-----------------------7---7--5---5--4---4-|

---------------------------------------------------------------------|
---------------------------------------------------------------------|
---------5-4--4-3--3-2--2-1b-----------------------------------------|
-3---3------------------------5-4--4-3--3-2--2-1--0---------0--------|

3:54                                  (x4) 4:25
|----------------------------------------|-----------------|
|-*--------------------------------5-4-*-|-----------------|
|-*---------------3-------2----3-2-----*-|-----------------|
|--1/2--0-----1/2------------------------|--0----1/2--0-1--|

           4:33               5:04
----------|------------------|------------------------------------------|
----------|--4:33--to--5:04--|-*----------------------------------------|
----------|------NO BASS-----|-*-------------------------------------3--|
2----0----|------------------|--0-0-0-0--0-0--1-2--0-0-0-0--0-0--2-3----|

                                    (x3) 5:26
---------------------------------------|--------------------------------|
-------------------------------------*-|--------------------------------|
------------------2------------------*-|--------------------------------|
0-0-0-0--0-0--2-3----0-0-0-0--0-0-0-0--|--0-0-0-0--0-0--1-2--0-0-0-0--0-|
(Third time: Increase tempo speed)

------------------------------------------------|
------------------------------------------------|
-------3---------------------2------------------|
0--2-3----0-0-0-0--0-0--2-3-----0-0-0-0--0---0--|

5:34                                                      (x6)
|------------------------------------------------------------|
|-*---------------5------------------5--7--------------5---*-|
|-*---------5--7-----7---------5--7---------------5--7---7-*-|
|--0--5--7---------------5--7---------------5--7-----------7-|

6:18
|-----------------------------------------------------------------------|
|-----------------------------------------------------------------------|
|-------------------------------5-4--4-3--3-2--2-1----------------------|
|--7---7--5---5--4---4--3---3-----------------------7---7--5---5--4---4-|

                                                      6:32
-----------------------------------------------------|-----------------|
-----------------------------------------------------|-----------------|
---------5-4--4-3--3-2--2-1b-------------------------|-----------------|
-3---3------------------------5-4--4-3--3-2--2-1--0--|--1/2--0----1/2-0|

6:37                                    6:45
|--------------------------------------|-------------------------------|
|---------------------------------5-4--|-------------------------------|
|----------------3-------2----3-2------|----------------------3----2---|
|--1/2--0-----1/2----------------------|--0----1----2----3-------------|

6:50                                  (x4) 7:23
|----------------------------------------|-----------------------------|
|-*--------------------------------5-4-*-|-----------------------------|
|-*---------------3-------2----3-2-----*-|-----------------------------|
|--1/2--0-----1/2------------------------|--0---1/2--0----1/2-0---0-(0)|

            
            
Suggest correction
Creating personal tab
Creating personal tab
You can edit any tab online and save it as your Personal.

You can edit, replace or remove any tab part or add personal notes – all changes will be seen only by you.

Personal tabs can be accessed anytime from any device, even offline.
Learn more »
comments
print report bad tab
3 comments total.
0 reply
dont-eat-jesus 10 Oct 21, 2008 09:33 AM

isnt it meant to be 2/3 at the beginning rather than 1/2??

dont know though :s could just be me

0 reply
TriggeringMetal 10 Nov 04, 2008 08:52 AM

dont'eat, im not sure, but 1/2 sounds a little bit off, either that, or i'm just outta tune :b

0 reply
tom313 10 Nov 12, 2008 04:40 PM

yeah its 2/3

guest
You may want to rate the tab now too:
select rating
Wanna post a correction for this tab? Suggest correction