Oops, an error
Loading. Please wait.

The Unforgiven Iii tab

version 1
version 1
26,499 views 9 this week
1 commentread comment
1 2 3 4 5
x 6
add to favorites
×
Save as Personal and add changes to this tab that will be seen only by you. Learn more ›
×
You can save this tab as Personal to edit and correct it or add notes. All changes will be seen only by you. Learn more »
launch autoscroll
font size
0
reset
how to read this tab
guitar tuner
backing track
0:00
0:00
edit
Autoscroll
slow
fast
+/-
esc
set tempo
stop
Author
Difficulty
The Unforgiven III
Metallica
Death Magnetic

Tabbed by Joshua029, with some corrections to the tabs by Jeff and bgro...



Intro:


           8x          4x              4x           2x   
|--7---------|--7--------|--10-----------|-------------|----------------------|
|----8-------|----8------|-----10--------|--12-10-8----|--10-8----------------|
|------9-----|------7----|--------12-11--|----------11-|-------11-9-8----8-11-|
|---------9--|--------9--|---------------|-------------|--------------9-------|
|------------|-----------|---------------|-------------|----------------------|
|------------|-----------|---------------|-------------|----------------------|

           4x          4x              4x           2x
|--7---------|--7--------|--10-----------|-------------|----------------------|
|----8-------|----8------|-----10--------|--12-10-8----|--10-8----------------|
|------9-----|------7----|--------12-11--|----------11-|-------11-9-8----8-11-|
|---------9--|--------9--|---------------|-------------|--------------9-------|
|------------|-----------|---------------|-------------|----------------------|
|------------|-----------|---------------|-------------|----------------------|


Guitar I after piano repeats:

               
|----------------|
|----------------|
|----------------|
|----------------|
|----7--7--7--7--|
|--0--0--0--0----|


Guitar II after piano (over Guitar I):

               8x                     
|----------------|
|----------------|
|----------------|
|----------------|
|--5/7---5/7-----|
|------0-----0---|

                     2x                     2x
|----------------------|----------------------|
|----------------------|----------------------|
|----------------------|----------------------|
|---------------10--9--|----------------------|
|----7---7---7---------|----7---7---7--10--9--|
|--0---0---0-----------|--0---0---0-----------|

                     2x                     2x
|----------------------|----------------------|----------------------|
|----------------------|----------------------|----------------------|
|----------------------|----------------------|----------------------|
|---------------10--9--|----------------------|----------------------|
|----7---7---7---------|----7---7---7--10--9--|--7~----5/7----5/7----|
|--0---0---0-----------|--0---0---0-----------|------------0------0--|



Verse (overdriven guitar):

                                                                   3x
|--------------------------------------------------------------------|
|--------------------------------------------------------------------|
|-------------4---------------4-------------------4------------------|
|--2------5h7------------5h7----5~------------5h7-----7-7--4-4-------|
|--2--5h7-------7~---5h7------------------5h7---------5-5--2-2-------|
|--0------------------------------------0----------------------------|


|-------------------------------------------------------------------------------|
|-------------------------------------------------------------------------------|
|-------------------------------------------------------------------------------|
|-9-9--5-5--7-7--------------------9-9--5-5--7-7--------------------------------|
|-7-7--3-3--5-5--5-5--7--6--5------7-7--3-3--5-5-5-5--7--6--5--4--3--2----------|
|----------------3-3---8--7--6~------------------3-3---8--7--6--5--4--3--3-2-0--|



Breakdown (Forgive me, forgive me not), repeated till solo:


Guitar I repeats:

|----------------|
|----------------|
|----------------|
|----------------|
|----7--7--7--7--|
|--0--0--0--0----|


Guitar II repeats over Guitar I:

|--------------------------------|
|--------------------------------|
|-----------------------4--------|
|-------5-4~--4-7-5~--5---7~--4~-|
|-7~--7--------------------------|
|--------------------------------|


Solo:

j/k...

but Guitar I repeats Verse under Guitar II.




            
            
Suggest correction
Creating personal tab
Creating personal tab
You can edit any tab online and save it as your Personal.

You can edit, replace or remove any tab part or add personal notes – all changes will be seen only by you.

Personal tabs can be accessed anytime from any device, even offline.
Learn more »
comments
print report bad tab
1 comment total.
0 reply
ElStHf 430 Sep 25, 2009 05:17 AM

great tab

guest
You may want to rate the tab now too:
select rating
Wanna post a correction for this tab? Suggest correction