Oops, an error
Loading. Please wait.
We have an official Wherever I May Roam tab made by UG professional guitarists. Check out the tab »
×
8,279 views 18 this week
1 commentread comment
1 2 3 4 5
x 5
add to favorites
×
Save as Personal and add changes to this tab that will be seen only by you. Learn more ›
×
You can save this tab as Personal to edit and correct it or add notes. All changes will be seen only by you. Learn more »
launch autoscroll
font size
0
reset
guitar tuner
backing track
0:00
0:00
edit
Autoscroll
slow
fast
+/-
esc
set tempo
stop
-------------------------------------------------------------------------------
                             Wherever I May Roam - Metallica
-------------------------------------------------------------------------------



!!!!!!please play this tab to the third link provided for max efficiency!!!!!



Tabbed by: MetallicaDMRTL
Tuning: EADG (standard)

its good to be back yall this song has to master tabs but do not fear i have all links
and a full song available this song was pretty much done when i wrote the tabs but just
didnt get time to upload it so here are both master links and a link to the full song, 
and this extremely easy to play and alot of fun too,also both master links are exactly the
same just one has more sitar than the other but exactly the same, ENJOI


         This link is to "Wherever I May Roam (Master Bass Track)"

               http://www.youtube.com/watch?v=TvU8R00uA9w


   This link is to "Wherever I May Roam (Sitar Version(Master Bass Track))"

               http://www.youtube.com/watch?v=sKATpl2pP8Y


             This link is to "Wherever I May Roam (Full Song)"

                http://www.youtube.com/watch?v=PAuKdxqhoSY


Black Album Bitches!!! \m/

(optional note play to strum with the sitar)
G|----------------------------|
D|-2----2----2----2----2----2-| The more Sitar version is heavy sitar slaps
A|----------------------------|
E|----------------------------|

G|----------------------------|--------------------|-------------|
D|----------------------------|--------------------|-------------|
A|-----12\--------------------|--------------------|-------------|
E|-/10-----0----0----0--------|-0----0----0--------|----5-6-7-8\-|

G|--------------------------------|---------------------------------|
D|--------------------------------|---------------------------------|
A|--------------------------------|-----------------0-0-1-1-2-2-3-3-|
E|-0--0-0-0-0-0-0-0-0-0-0-0-0-1-1-|-0-0-0-0-0-0-0-0-----------------|

G|--------------------------------|---------------------------------|
D|--------------------------------|---------------------------------|
A|--------------------------------|-----------------0-0-1-1-2-2-3-3-|
E|-0--0-0-0-0-0-0-0-0-0-0-3-5-1-1-|-0-0-0-0-0-0-0-0-----------------|

G|---------------------------------|-------------------------------------|
D|-0-1-2-3-------------------------|----------------------------------*--|
A|---------------------------------|-----------------0-0-1-1-2-2-3-3--5--|
E|---------0-1-0-0-0-0-0-0-0-0-1-1-|-0-0-0-0-0-0-0-0---------------------|

G|--------------------------------------------------------------------|
D|--------------------------------------------------------------------|
A|---7\---*----7\---------------------------*----7\-------------------|
E|-0----0-0--0----1---0-1-0-1---3-1-0--0--0-0--0----1---0-1-0-1----7\-|

G|-------------------------------------------------|
D|-------------------------------------------------| WAH Pedal On
A|-------------------------------------------------|
E|-0--0--0--0--0--0--0--3-5-6--6--6--6--6--6--6--6-|

G|---------------------------------------------------|
D|---------------------------------------------------|
A|---------------------------------------------------|
E|-5--5--5--5--5--5--5--3-5-6--6--6--6--6--6--6--5-3-|

G|-------------------------------------------------|
D|-------------------------------------------------|
A|-------------------------------------------------|
E|-0--0--0--0--0--0--0--3-5-6--6--6--6--6--6--6--6-|

G|----------------------------------------------------|-- |
D|------------------------------------------------------- | Shut off WAH
A|----------------------------------------------------|-- |
E|-3--3--3--3--3--3--3--3-5-6--6--6--6-6-6--6--6--6-0-|-- |

G|--------------------------------|
D|--------------------------------|
A|-----------------5-6-7-7-7h8-7\-|
E|-6-6-6-6-7-7-8-8----------------|

G|------------------------------------------------|
D|------------------------------------------------|
A|--------------------------------0-0-1-1-2-2-3---|
E|-0--0-0-3-5-1-1-0-0-0-0-0-1-0-0---------------0-|

G|---------------------------------|-------------------------------|
D|---------------------------------|-------------------------------|
A|---------------------------------|-------------------------------|
E|-1-1-1-1-1-1-1-1-1-1-1-1-1-3-1-1-|-0-0-0-0-0-0-0-0-0-0-0-0-0-3-5-|

G|--------------------------------------------------------------|
D|--------------------------------------------------------------|
A|------------------------------------------------------3-------|
E|-6-6-6-6-6-6-6-6-6-6-6-6-6-6-0-5--5-3-5--5-3-5--5-3-5---5-0-3-|

G|----------------------|
D|----------------------|
A|----------------------|
E|--3-3--0-3--0-3-3-2-1-|

G|--------------------------------|---------------------------------|
D|--------------------------------|---------------------------------|
A|--------------------------------|-----------------0-0-1-1-2-2-3-3-|
E|-0--0-0-0-1-0-0-0-0-0-0-0-0-1-1-|-0-0-0-0-0-0-0-0-----------------|

G|---------------------------------|-------------------------------------|
D|---------------------------------|----------------------------------*--|
A|---------------------------------|-----------------0-0-1-1-2-2-3-3--5--|
E|-0-0-0-0-0-0-0-0-0-0-0-0-3-5-1-1-|-0-0-0-0-0-1-0-0---------------------|

G|---------------------------------|
D|---------------------------------|
A|---7\---*----7\------------------|
E|-0----0-0--0----1---0-1-0-1---7\-|

G|-------------------------------------------------|
D|-------------------------------------------------|
A|-------------------------------------------------|
E|-0--0--0--0--0--0--0--3-5-6--6--6--6--6--6--6--6-|

G|---------------------------------------------------|
D|---------------------------------------------------|
A|---------------------------------------------------|
E|-5--5--5--5--5--5--5--3-5-6--6--6--6--6--6--6--5-3-|

G|-------------------------------------------------|
D|-------------------------------------------------|
A|-------------------------------------------------|
E|-0--0--0--0--0--0--0--3-5-6--6--6--6--6--6--6--6-|

G|---------------------------------------------------|
D|---------------------------------------------------|
A|---------------------------------------------------|
E|-5--5--5--5--5--5--5--3-5-6--6--6--6--6--6--6--6-6-|

G|--------------------------------|
D|--------------------------------|
A|-----------------5-6-7-7-7h8-7\-|
E|-6-6-6-6-7-7-8-8----------------|

G|-------------------------------|-----------------|
D|-------------------------------|-----------------|
A|-------------------------------|-0-0-1-1-2-2-3---|
E|-0--0-0-3-5-1-1-0--0-0-0-1-0-0-|---------------0-|

G|----------------------------------------------------------------|
D|----------------------------------------------------------------|
A|----------------------------------------------------------------|
E|-1-1-1-1-1-1-1-1-1-1-1-1-1-1-3-1-0--0-0-0-0-0-0-0-0-0-0-0-0-3/5-|

G|---------------------------------------------------------------|
D|---------------------------------------------------------------|
A|-------------------------------------------------------3-------|
E|-6--6-6-6-6-6-6-6-6-6-6-6-6-6-0-5--5-3-5--5-3-5--5-3-5---5-0-3-|

G|--------------------------------------------------------------------------------|
D|------------------------------------------------------------------------------1-|
A|------------------------------7-------7-------3-------7-------7-------7---------|
E|-0-3--0-3--3-3-2-1-0--0-0-0-0---0-0-0---0-0-1---1-0-0---0-0-0-0-0-0-0---0-1-2---|

G|-------------------------------------------------------------|
D|-----------------------------------------------------------1-|
A|----7-------7-------7--------------7-------7-----------------|
E|-0----0-0-0---0-0-0---0-0-1-3-1-0----0-0-0---0-0-0-0-0-1-2---|

G|---------------------------------------------------------------|
D|---------------------------------------------------------------|
A|---------------------------------------------------------------|
E|-1--1-1-1-1-1-1-1-1-1-1-1-1-3-1-0--0-0-0-0-0-0-0-0-0-0-0-0-3/5-|

G|---------------------------------------------------------------|
D|---------------------------------------------------------------|
A|-------------------------------------------------------3-------|
E|-6--6-6-6-6-6-6-6-6-6-6-6-6-6-0-5--5-3-5--5-3-5--5-3-5---5-0-3-|

G|---------------------------|
D|---------------------------|
A|---------------------------|
E|-3-0-3--3-0-3--3-3-3-3-2-1-|

G|----------------------------------------------------------------|
D|----------------------------------------------------------------|
A|------------------------------------------------0-0-1-1-2-2-3-3-|
E|-0--0-0-0-0-0-0-0-0-0-0-0-0-1-1-0-0-0-0-0-0-0-0-----------------|

G|-------------------------------------------------------------------|
D|----------------------------------------------------------------*--|
A|-----------------------------------------------0-0-1-1-2-2-3-3--5--|
E|-0--0-0-0-0-0-0-0-0-0-0-3-5-1-1-0--0-0-0-1-0-0---------------------|

G|-----------------------------------------------------------------------------|
D|-----------------------------------------------------------------------------|
A|---7\---*-----7\--------------------------------*----------------------------|
E|-0----0-0---0----3-5-6--6--5-6-5-6--6-5-3--3--0-3--3--3-5-6--6--5-6-5-6--6-5-|

G|--------------------------------|
D|--------------------------------|
A|-----------------5-6-7-7-7h8-7\-|
E|-6-6-6-6-7-7-8-8----------------|

G|----------------------------------------------------|
D|-------------------------------------------------*--|
A|--------------------------------0-0-1-1-2-2-3-3--5--|
E|-0--0-0-3-5-1-1-0-0-0-0-0-1-0-0---------------------|

G|-----------------------------------------------------------------------|
D|-----------------------------------------------------------------------|
A|----7\-----------------------------------------------------------------|
E|-3/----1--1-1-1-1-1-1-1-1-1-1-1-1-1-3-1-0--0-0-0-0-0-0-0-0-0-0-0-0-3/5-|

G|-----------------------------------------------------------------|
D|-----------------------------------------------------------------|
A|---------------------------------------------------------3-------|
E|-6--6-6-6-6-6-6-6-6-6-6-6-6-6-6-0-5--5-3-5--5-3-5--5-3-5---5-0-3-|

G|--------------------------------------------------------------|
D|-------------------------------*------------------------------|
A|-----------------5-4-3--0-3--0-3--3--5-3-2--2-2--2-2-1--------|
E|-0-3--0-3--0-3-3----------------------------------------0-3-2-|

G|-----------------------------------------------------------------|
D|-----------------------------------------------------------------|
A|-------------------------------------------------0-0-1-1-2-2-3-3-|
E|-0-0-0-0-0-1-0-0-0-0-0-0-3-5-1-1-0-0-0-0-0-1-0-0-----------------|

G|-----------------------------------------------------------------|
D|-0-1-2-3---------------------------------------------------------|
A|-------------------------------------------------0-0-1-1-2-2-3-3-| x3
E|---------0-1-0-0-0-0-0-0-3-5-1-1-0-0-0-0-0-1-0-0-----------------|

G|----------------------------------------------------------------|
D|-0-1-2-3--------------------------------------------------------|
A|-----------------7\-----------------------------0-0-1-1-2-2-3-3-|
E|---------0-1-0-0-----0-0-3-5-1-1-0--0-0-0-1-0-0-----------------|

G|-----------------------------------------------------------------|
D|-0-1-2-3---------------------------------------------------------|
A|-------------------------------------------------0-0-1-1-2-2-3-3-| x4
E|---------0-1-0-0-0-0-0-0-3-5-1-1-0-0-0-0-0-1-0-0-----------------|

so u guys know really theres some sitar slaps every now and then but really its not
worth tabbing it and also u guys know the drill any suggestions leave em below and 
enjoi -MetallicaDMRTL

                                \m/Metallica\m/

            
            
Suggest correction
Creating personal tab
Creating personal tab
You can edit any tab online and save it as your Personal.

You can edit, replace or remove any tab part or add personal notes – all changes will be seen only by you.

Personal tabs can be accessed anytime from any device, even offline.
Learn more »
comments
print report bad tab
1 comment total.
0 reply
inflames42 611 Aug 09, 2017 08:54 AM

the second verse is wrong
G|---------------------------------------------------|
D|---------------------------------------------------|
A|---------------------------------------------------|
E|-5--5--5--5--5--5--5--3-5-6--6--6--6--6--6--6--6-6-|

G|--------------------------------|
D|--------------------------------|
A|-----------------5-6-7-7-7h8-7\-|
E|-6-6-6-6-7-7-8-8----------------|

change the 5s in the first figure with 3s

guest
You may want to rate the tab now too:
select rating
Wanna post a correction for this tab? Suggest correction