Oops, an error
Loading. Please wait.
We have an official Whiskey In The Jar tab made by UG professional guitarists. Check out the tab »
×
15,231 views 21 this week
2 commentsread comments
1 2 3 4 5
x 7
add to favorites
×
Save as Personal and add changes to this tab that will be seen only by you. Learn more ›
×
You can save this tab as Personal to edit and correct it or add notes. All changes will be seen only by you. Learn more »
launch autoscroll
font size
0
reset
guitar tuner
backing track
0:00
0:00
edit
Autoscroll
slow
fast
+/-
esc
set tempo
stop
Author
-------------------------------------------------------------------------------
                Whiskey In The Jar - Metallica
-------------------------------------------------------------------------------

Tabbed By : CyborgPimp
e-mail: jon_holmesx@yahoo.com
Tuning: Standard
Tabbed for a 5 string

Intro
G|----------------|----------------|----------------|----------------|
D|----------------|----------------|----------------|----------------|
A|----------------|----------------|----------------|----------------|
E|----------------|----------------|----------------|----------------|
B|6-5-33333333333/|66666666666-6-5-|333333333333333/|6666666666666666|

Verse
G|----------------|----------------|----------------|----------------|
D|----------------|----------------|----------------|----------------|
A|----------------|----------------|----------------|----------------| x2
E|----------------|----------------|6666666666666666|----------------|
B|6666666666666666|3333333333333333|----------------|6666666666666666|

G|----------------|----------------|----------------|----------------|
D|----------------|----------------|----------------|----------------|
A|----------------|----------------|----------------|----------------|
E|----------------|----------------|----------------|----------------|
B|6-5-33333333333/|66666666666-6-5-|333333333333333/|6666666666666666|

Verse
G|----------------|----------------|----------------|----------------|
D|----------------|----------------|----------------|----------------|
A|----------------|----------------|----------------|----------------| x2
E|----------------|----------------|6666666666666666|----------------|
B|6666666666666666|3333333333333333|----------------|6666666666666666|

Musha ring dum a doo dum a da
G|----------------|----------------|
D|----------------|----------------|
A|----------------|----------------|
E|8-88-88-7-7-7-76|66666666--------|
B|----------------|--------66666666|

G|----------------|----------------|----------------|----------------|
D|----------------|----------------|----------------|----------------|
A|----------------|----------------|----------------|----------------|
E|----------------|----------------|----------------|----------------|
B|6-5-33333333333/|66666666666-6-5-|333333333333333/|6666666666666666|

Verse
G|----------------|----------------|----------------|----------------|
D|----------------|----------------|----------------|----------------|
A|----------------|----------------|----------------|----------------| x2
E|----------------|----------------|6666666666666666|----------------|
B|6666666666666666|3333333333333333|----------------|6666666666666666|

Musha ring dum a doo dum a da
G|----------------|----------------|
D|----------------|----------------|
A|----------------|----------------|
E|8-88-88-7-7-7-76|66666666--------|
B|----------------|--------66666666|

Solo - sections played connecutively
G|----------------|----------------|----------------|----------------|
D|----------------|----------------|----------------|----------------|
A|----------------|----------------|----------------|----------------|
E|----------------|----------------|----------------|6666666666666666|
B|6-5-33333333333/|666666666666666\|3333333333333333|----------------|

G|----------------|----------------|----------------|----------------|
D|----------------|----------------|----------------|----------------|
A|----------------|----------------|----------------|----------------|
E|----------------|----------------|8888888888888888|6666666666666666|
B|6666666666666666|6666666666666666|----------------|----------------|

G|----------------|----------------|----------------|----------------|
D|----------------|----------------|----------------|----------------|
A|----------------|----------------|----------------|----------------|
E|----------------|8-88-888-8-88-88|6-66-666-6-66-66|6-6-66----------|
B|6666666666666666|----------------|----------------|------6-66-666-6|

G|----------------|----------------|----------------|----------------|
D|----------------|----------------|----------------|----------------|
A|----------------|----------------|----------------|----------------|
E|----------------|----------------|----------------|----------------|
B|6-5-33333333333/|66666666666-6-5-|333333333333333/|6666666666666666|

Bridge - there are alot of little things in this one that can be filled in

Some men like the fishin....
G|----------------|----------------|----------------|----------------|
D|----------------|-----------7----|----------------|----------------|
A|------4/5r------|----------------|-------555555555|----------------|
E|----------------|7\6r------------|----------------|66666666--------|
B|6r--------------|--------6r------|6r--------------|--------66666666|

Musha ring dum a doo dum a da
G|----------------|----------------|
D|----------------|----------------|
A|----------------|----------------|
E|8-88-88-7-7-7-76|66666666--------|
B|----------------|--------66666666|

G|----------------|----------------|----------------|----------------|
D|----------------|----------------|----------------|----------------|
A|----------------|----------------|----------------|----------------|
E|----------------|----------------|----------------|----------------|
B|6-5-33333333333/|66666666666-6-5-|333333333333333/|6666666666666666|

Outro
Musha ring dum a doo dum a da
G|----------------|----------------|
D|----------------|----------------|
A|----------------|----------------|
E|8-88-88-7-7-7-76|66666666--------|
B|----------------|--------66666666|

I just play the notes to the same rhythm of the vocals :)
G|----------------|----------------|----------------|----------------|
D|----------------|----------------|----------------|----------------|
A|----------------|----------------|----------------|----------------|
E|----------------|----------------|----------------|----------------|
B|666--66--66--6--|666--66--66--6--|666--66--66--6--|666--66--66--6--|


We need more Irish metal drinking songs!

            
            
Suggest correction
Creating personal tab
Creating personal tab
You can edit any tab online and save it as your Personal.

You can edit, replace or remove any tab part or add personal notes – all changes will be seen only by you.

Personal tabs can be accessed anytime from any device, even offline.
Learn more »
comments
print report bad tab
2 comments total.
0 reply
Tanner Streeter 324 May 02, 2013 05:04 PM

WOW!!! I don't really think he plays 5 string in this song, but this sounds awesome. 5* from me.

0 reply
DAVIDYASSINSK1 10 Feb 11, 2014 06:36 PM

tried this on a 5 string,really sounds good,great tab

guest
You may want to rate the tab now too:
select rating
Wanna post a correction for this tab? Suggest correction